Moist - Leave It Alone Chords & Tabs

 

Leave It Alone Chords & Tabs

Moist Chords & Tabs

Version: 1 Type: Tab 1 rating
1 star 2 stars 3 stars 4 stars 5 stars
comments

Leave It Alone Tab

   
Song: Leave it Alone
Artist: Moist
Tabbed by: conart_cry@yahoo.com

Intro: The song starts off with a bass hitting the E note on the D-string
Then after about 0:15 seconds that this starts apreggio or whatever


---------------------------------------------
---------------------------------------------
---------------------------------------------
--2------4---4-----4---4-----2---2-----2---2-
--2--------2-----2---2---------2-----2---2---
--0--0---------0---------0---------0---------

---------------------------------------------
---------------------------------------------
--0------------------------2---(2)-----------
--2------4---4-----4---4-----2---2-----2---2-
--2----2---2-----2---2-----2---2-----2---2---
--0--0---------0---------0---------0---------




Verses:
Rthym Fig 1:
This really follows the vocaling listen to the song please!

-----------------------------------------------------------------------------------
-----------------------------------------------------------------------------------
--(7)-/-9--9--9--9--9--------------------------------------------------------------
--(7)-/-9--9--9--9--9----9-----9---9---9---9---9----7---7---7---7---7----7---7---7-
--(5)-/-7--7--7--7--7----9-h--11--11--12--11---9----5---5---5---5---5----4---4---5-
--------0--0--0--0--0----0-----0---0---0---0---0----5---5---5---5---5----5---5---5-           
     I  - d  walk   the       wa- ter to get       Back to you      and   where I was (v-Still D there)
complete



Prechorus:
Rythm Fig  1a:
Again it goes with the vocals!
 C#m              Bsus2            Abm               A

--0--0--0--0--0----0--0--0--0--0----4--4--4--4--4----0--0--0--0--0---
--5--5--4--5--5----0--5--4--5--5----4--5--4--5--5----5--5--5--5--5---
--6--6--6--6--6----4--4--4--4--4----4--4--4--4--4----6--6--6--6--6---
--6--6--6--6--6----4--4--4--4--4----6--6--6--6--6----7--7--7--7--7---
--0--0--0--0--0----0--0--0--0--0---------------------0--0--0--0--0---
---------------------------------------------------------------------


Chorus:
Rythm Fig 2:

  C#m   Bsus4    Abm    A
---9-----9--------6-----7--
---9----12--------9----10--
---9----11--------8-----9--
--11-----9--------6-----7--
---------------------------
---------------------------

Guitar Solo: Distortion = b-bend, \ /slides

E             C/G       G        D                       

------------------------------------------------------
------------------------------------------------------
---1-2/4---1--4/7-5-4---4-5-4/7-4-----2---2----1------
-2-------2------------5-----------5-4----4---2----2---
------------------------------------------------------
------------------------------------------------------

------------------------------------------------------
------------------------------------------------------
---1-2/4---1--4/7-5-4---4-5-4/7-4--5/7/9-9--9--9------
-2-------2------------5-------------------------------
------------------------------------------------------
------------------------------------------------------

W/slight wah
[ Tab from: http://www.guitartabs.cc/tabs/m/moist/leave_it_alone_tab.html ]
E                      C/G                    G                   D
-------------------------------------------------------------------------------------
-------------------------------------------------------------------------------------
-------------------------------------------------------------------------------------
-14b--14b--14b--14--14--16--16b--16--14--16--16b--16---14--16--16b--14\12-14-12\11-12
-------------------------------------------------------------------------------------
-------------------------------------------------------------------------------------

------------------------------------------------------------------------------------
----------------------------------------------------------------15-----15---15------
---------------------------------------------------14----12--14b----14b--14b---14b--
--14--14--14--14--14--16--16b--16--14--12-ho-14----14-------------------------------
------------------------------------------------------------------------------------
------------------------------------------------------------------------------------


Rythm Fig 3:
Outro, this is my favorite part!

C#m              Bsus2            Abm                A
-9---9---9---9---9---9---9---9----11---11---11---11--12--11--9---11--9--9--
-9---12--10--9---12--10--9---9----12---12---12---12--10--10--10--10--10-10-
-9---9---9---9---11--11--11--11---13---13---13---13--9---9---9---9---9--9--
-11--11--11--11--9---9---9---9----13---13---13---13--9---9---9---9---9--9--
---------------------------------------------------------------------------
---------------------------------------------------------------------------

Rythm Fig 3A:

C#m              Bsus2            Abm                A
-9---12--10--9---12--10--9---9----11---11---12---11--12--11--9---11--9--9--
-9---9---9---9---12--10--9---9----12---12---12---12--10--10--10--10--10-10-
-9---9---9---9---11--11--11--11---13---13---13---13--9---9---9---9---9--9--
-11--11--11--11--9---9---9---9----13---13---13---13--9---9---9---9---9--9--
---------------------------------------------------------------------------
---------------------------------------------------------------------------

Verse 1: (I put where Rythm Fig 1 starts each time!)
E
Id walk the water to get back to you
And where i was complete
E
We found you scattered by the highway side too
Soon to be released
E
Gathered the pieces up and clean the places
Where you were undone
E
And washed the wreckage out unfinished all the
Thoughts that wed begun

Prechorus:Rythm Fig 1a:
I came to burn the sky and tear away the beauty that it sows

If i could rape the day and find the things I thought Id always known

Chorus 1: Rythm Fig 2
Leave it alone again tonight

Verse 2:
E
I laid your arms out long untwisted there
And shaped what i could find
E
Unmade the most of it then left the rest
The parts unrecognized
E
My reconstruction was the only way
For one last look at you
E
I lost the sense of it the absolution
That we never knew

Chorus 2:
Leave it alone again tonight
Leave it alone again tonight
And it takes me back from this place here, this place here!

From here is the guitar solo: Guitar solo chords = E C/G G and D
After solo leave distortion on till the end!
Then Prechorus and Chorus 1

Outro:Do Rythm Fig3:
And it takes me back from this place here
From this place here it takes me over
And it might be lost in this place here
From this place here it takes me on

Outro 2: Rythm Fig3a:
Tonight leave it alone, tonight, leave it alone, Tonight, leave it alone, tonight
leave it alone!

Do Rythm Fig 3 twice then end on E


Comments