Moist - Disco Days Chords & Tabs

 

Disco Days Chords & Tabs

Moist Chords & Tabs

Version: 1 Type: Tab 0 ratings
1 star 2 stars 3 stars 4 stars 5 stars
comments

Disco Days Tab

   
Moist - Disco Days
Tabbed By: tza
EMail: timmy91199@yahoo.ca
Creature

Eb:
Eb Ab Db Gb Bb Eb

Piano arr. for gtr.


Verses: w/ fingers

e----------0---0----0---0-------0------------0--0-----------------
b-5---5----2---2----0---0---------4--5---5---2--2---3---3-----3---
g-6---6----2--------1---1-------1----6---6---2--------------------
d-6-----6--------2----------2--------6-----6------2-4---4-----4-0-
a-4--------0--------------2---2------4-------0------5-------0-----
e-------------------0---------------------------------------------

e----------0---0----0---0--------0----------------2---------------
b-5---5----2---2----0---0--------0---2---2--------2---------------
g-6---6----2--------1---1--------1---3---3--------3---------------
d-6-----6--------2-------------------4----------------------------
a-4--------0--------------2----2-----------4----4-----------------
e-------------------0----------------2----------------------------

Chorus:

e------4--------------4----4----12--------------
b----5---5----4--5-7----------------12----------
g--------------------------------------12---11--
d-----------------------------------------------
a-0--------0------------6-----------------------
e-------------4------------2--------------------

e-0----4--------------4----4---2---2------2-----
b----5---5----4--5-7-----------2---2-5----2-----
g-----------------------------------------------
d--------------------------------4--------------
a-0--------0------------6---------------4-------
e-------------4------------2--------------------
[ Tab from: http://www.guitartabs.cc/tabs/m/moist/disco_days_tab.html ]
e-0----4--------------4----4--------------2-----
b----5---5----4--5-7----------------------2-----
g-----------------------------------------------
d-----------------------------------------------
a-0--------0------------6-----------------------
e-------------4------------2--------------------

e-4---4------------------------------
b-5---5-------4----2---2-------2-----
g-6---6------------------------------
d-------------6----4---4-------4-----
a-0-----0-------6--------4--------4--
e----------4-------2---------2-------

1st time:

e-----------------------------------------
b------5----------------------------------
g--------4----------------------------1---
d----5-----5-4--------2h4--4--4--2-4----0- x2
a--------------0----4-5-------------------
e-4---------------------------------------

2nd time:

e-0---0--------0----0----0-------------
b-2---2-----5-------2----2-------------
g-----------5--------------------------
d--------2-----------------------------
a-0------------------------------4-----
e-----------4----4--2---------2-----2--

Outro:

e-----------------------------------------
b------5----------------------------------
g--------4----------------------------1---
d----5-----5-4--------2h4--4--4--2-4----0- x2
a--------------0----4-5-------------------
e-4---------------------------------------

e----------------------------------4p3---2--3----------12---------
b----5---------------------------------5------------------12------
g----4------------------------------------------------------12-11-
d------6-5p4-2-----2--5---4--------------------5--4---------------
a---------------4-----4---4--------------0-----------5------------
e-4----------5--------5---------4---------------------------------

e-----------------------------------------------------------------
b------------0----------------------------------------------------
g------------------------------1----2----------------1----2-------
d----5\4-2---2---4--------4----2----2-----------4----2----2-------
a----------4-0---5--------4----0----5-----------4----0----5-------
e-4---------------------------------------------------------------


that's all

trevor jones
timmy91199@yahoo.ca
Comments