Moist - Breathe Chords & Tabs

 

Breathe Chords & Tabs

Moist Chords & Tabs

Version: 1 Type: Tab 0 ratings
1 star 2 stars 3 stars 4 stars 5 stars
comments

Breathe Tab

   
T1: Derek Roberts, dt_roberts@hotmail.com, Moist, Breathe, ??/09/99

S1:     Moist - Breathe

    This must be played quietly with distortion.
    Using your fingers gives a good sound.
    There is much more than just chords in the Verse and Chorus.

[ Tab from: http://www.guitartabs.cc/tabs/m/moist/breathe_tab.html ]
    Intro
   
|-----------------|-----------------|-----------------|-----------------|
|-3---3-----------|-3---3-----------|-3---3---3---3---|-3---3---3---3---|
|---------2---0---|---------2---0---|-----------------|-----------------|
|---0---0---0---0-|---0---0---0---0-|---0---0---0---0-|---0---0---0---0-|
|-----------------|-----------------|-----------------|-----------------|
|-----------------|-----------------|-----------------|-----------------|
    | . | . | . | .   | . | . | . | .   | . | . | . | .   | . | . | .
| .
                                            Save.             Save me
from  
   
|-----------------|-----------------|-----------------|-----------------|
|-----3---3---3---|-3---3---3---3---|-----------------|-----------------|
|---2-------------|-----------------|-----5---5---5---|-----2---2---2---|
|-0-----0---0---0-|---0---0---0---0-|---5-------------|---2-------------|
|-----------------|-----------------|-3-----3---3---3-|-0-----0---0---0-|
|-----------------|-----------------|-----------------|-----------------|
| . | . | . | .   | . | . | . | .   | . | . | . | .   | . | . | .
| .
        this... (etc)
    |-----------------|-----------------|
    |-3---3---3---3---|-3---3-----------|
    |-----------------|---------2---0---|
    |---0---0---0---0-|---0---0---0---0-|
    |-----------------|-----------------|
    |-----------------|-----------------|
      | . | . | . | .   | . | . | . | .


    Verse - play each for one bar
       D     D     Bm    Bm    A     G     D
    |--2--|--2--|--2--|--2--|--0--|--3--|--2--|
    |--3--|--3--|--3--|--3--|--2--|--3--|--3--|
    |--2--|--2--|--4--|--4--|--2--|--0--|--2--|
    |--0--|--0--|--4--|--4--|--2--|--0--|--0--|
    |-----|-----|--2--|--2--|--0--|--2--|-----|
    |-----|-----|-----|-----|-----|--3--|-----|
     You. Did you suffer much? ... (etc)


    Chorus - play each for one bar
       Bm    D     G     G     Bm    D     G
    |--2--|--2--|--3--|--3--|--2--|--3--|--3--|
    |--3--|--3--|--3--|--3--|--3--|--3--|--3--|
    |--4--|--2--|--0--|--0--|--4--|--2--|--0--|
    |--4--|--0--|--0--|--0--|--4--|--0--|--0--|
    |--2--|-----|--2--|--2--|--2--|-----|--2--|
    |-----|-----|--3--|--3--|-----|-----|--3--|
     Said I'm so glad to see you... (etc)


    Bridge - bass and drums (badly) converted to guitar
    |-----------------|
    |-----------------|        "HIT" = hit the strings at the bottom
    |-2-2-H---2-2-H---|                of the neck against the guitar
    |-2-2-I---2-2-I---|                to make a slapping-type sound
    |-0-0-T---0-0-T---|
    |-----------------|
      | . | . | . | .
      If I could only breathe what you breathe ... (etc)
     
    
    Solo - play Verse under solo
                                               dt_roberts@hotmail.com

Comments