Moist - Better Than You Chords & Tabs

 

Better Than You Chords & Tabs

Moist Chords & Tabs

Version: 2 Type: Tab 0 ratings
1 star 2 stars 3 stars 4 stars 5 stars
comments

Better Than You Tab

   
Better Than You-Moist
Creature

E A D G B E


Intro:

e-----------------------------------------------------------------
b-----------------------------------------------------------------
g-----------------------------------------------------------------
d-----------------------------------------------------------------
a--------------------------------------------------------------4--
e--------------------------------------------------------------0--

Fig. 1

e-----------------------------------------------------------------
b------5-----5-----5---3-----3--------5-----5-----5---3-----3-----
g----0-4---2-2-----4---------2------0-4---2-2-----4---------2-----
d----0-2-------2h4---4-----4--------0-2-------2h4---4-----4-------
a-4----0-----------------------0-4----0-----------------------0---
e-2------------------------------2--------------------------------

Verses:

Riff A:

e-----------------------------------------------------------------
b---------------5-----5\3-----------------------5-----5\3---------
g-------------4-------4\2-----2---------------4-------4\2-----2---
d-----4-----2-------2-------0-0-------4-----2-------2-------0-0---
a---4---0-----------------------0---4---0-----------------------0-
e-2-------------------------------2-------------------------------

Pre Chorus:

e-----------------------------------------------------------------
b---------------------------------------3---3-----3---------------
g-6---6--------6------------------------2---2-----2----2-1----1---
d-6---6--------6-----4---4--------4-----0---0---0-0--0------0-0---
a-4---4-----4--4--0--4---4--------4------------------0------0---0-
e-4---4-----4-----0--2---2-----2--2--0----------------------------

Chorus:

e-----------------------------------------------------------------
b-3---------------------------------------------------------------
g-4---------4---2-------------------------------------------------
d-4----4----4---2--4----4---4---4-------------4-------4-------4---
a-2----2----2------4----4---4---4---0-4-----0-------2-------2---0-
e------------------2----2---2---2-2-----2-------0-4-----4---------

e-----------------------------------------------------------------
b-----------------------------------------------------------------
g------4----4---2-------------------------------------------------
d-4----4----4---2--4----4---4---4-------------4-------4-------4---
a-2----2----2---2--4----4---4---4---0-4-----0-------2-------2---0-
e-2----------------2----2---2---2-2-----2-------0-4-----4-------0-

Guitar Solo:
[ Tab from: http://www.guitartabs.cc/tabs/m/moist/better_than_you_tab_ver_2.html ]
e------------------------------------------------------------
b--------------------------------------5---------------------
g-4b~~~~~~~rb-2--------------2-4b~~~~~~~rb-2--------------2--
d----------------4----4--2h4------------------4----4--2h4----
a------------------------------------------------------------
e------------------------------------------------------------

e----------5--------------------------------------------------
b--------5----------------------------------------------------
g-4b~~~~-----rb--2--4--2~~-----------2-4p2---------2--2h4p2---
d--------------------------4--2--2h4-------4p2-2h4-2--------4-
a-------------------------------------------------------------
e-------------------------------------------------------------

e----------------------------
b----------------------------
g-4---2--4p2-----2-----2-----
d---4--------4p2----4--2--4--
a----------------------------
e----------------------------

...better than you...

x2
e-----------------------------------------------------------------
b-----------------------------------------------------------------
g-----------------------------------------------------------------
d-4---4-4---4-4-4--4---4-4---4-4-4--4---4-4---4-4---4-4-4-4-4-4-4-
a-2---2-0---2-2-0--2---2-0---2-2-0--2---2-0---2-2---2-4-4-4-4-2-0-
e-----------------------------------------------------------------

Outro:

e-----------------------------------------------------------------
b-----------------------------------------------------------------
g-4---4-4-4--4--4-4-4-4-4---4-4-4/6-6-6--6--6--6-6-6-6--6---6-6---
d-----------------------------------------------------------------
a-----------------------------------------------------------------
e-----------------------------------------------------------------

e-----------------------------------------------------------------
b-----------------------------------------------------------------
g-4---4-4-4--4--4-4-4-4-4---4-4-4/6-6-6-6--6--6-6-6-6--7----------
d-----------------------------------------------------------------
a-----------------------------------------------------------------
e-----------------------------------------------------------------

e-----------------------------------------------------------------
b-----------------------------------------------------------------
g-4---4-4-4--4--4-4-4-4-4---4-4-4/6-6-6--6-6--6-6-6--7--7--7-7-7--
d-----------------------------------------------------------------
a-----------------------------------------------------------------
e-----------------------------------------------------------------

e-----------------------------------------------------------------
b-----------------------------------------------------------------
g-9-----------------\---------------------------------------------
d-----------------------4-----------------------------------------
a-----------------------4-----------------------------------------
e-----------------------2-----------------------------------------


thatís all
Comments