Moist - Believe Me Chords & Tabs

 

Believe Me Chords & Tabs

Moist Chords & Tabs

Version: 1 Type: Tab 0 ratings
1 star 2 stars 3 stars 4 stars 5 stars
comments

Believe Me Tab

   
Belive Me by Moist
Tabbed by Chris Marks

This may not be exactly as they finger it, but it is the right notes
Words are spaced as close to where they start in the bar as I can get them
Each character in the tab counts as one sixteenth note

/ = slide up to
\ = slide down to
~ = vibrato
* = grace note
_ = last minute slide

a = fret 10

Intro (I'm pretty sure it's really a bass, but I'll tab it out for
        guitar anyways 'cause it sounds cool)

   Each character is a sixteenth note
E|----------------|----------------|----------------|
B|----------------|----------------|----1--/3---3---|
G|------------2-02|----------------|----------------|
D|-----------2----|--------------02|----------------|
A|----------------|0---------------|3-----3/5-5-----|
E|----------------|----------------|----------------|
                                                   Be-

Verse 1

E|----------------|----------------|----------------|----------------|
B|----------------|----3-----------|----1-----------|------------1---|
G|------------020-|------------0-02|----------------|----2-----------|
D|2---------02---2|0---------02----|----------2/5-57|------02------0-|
A|----------------|----------------|3---------------|0-------3-03----|
E|----------------|----------------|----------------|----------------|
 -lieve...      God...           You...            Ya Know...       Be-

E|----------------|----------------|----------------|----------------|
B|----------------|----------------|----1-------1---|----------------|
G|------------020-|------0-----0---|----------------|----------------|
D|2---------02---2|0---------02--7\|----------------|------02------0-|
A|----------------|----------------|3-------3-3---35|0-------3-03----|
E|----------------|----------------|----------------|----------------|
 -lieve...      Do...             Sahayaid...                      And...

(Bass pattern and actual guitar part spaced the same)

Bass
E|----------------|----------------|----------------|----------------|
B|----------------|----------------|----------------|----------------|
G|------------020-|------------020-|----------------|----------------|
D|2-----22--02---2|0-----0-0-02---2|----------2/5-57|------02------0-|
A|----------------|----------------|3-------3-------|0-------3-03----|
E|----------------|----------------|----------------|----------------|

Guitar (Electric with a little distortion)
E|----------------|----------------|----------------|----------------|
B|----0-----------|----------------|----------------|----0-------1---|
G|--0---0-0-------|----5-----------|----5-----------|--------0-----0-|
D|----------------|5-4---5-5~~~~~~~|5-5---5---------|--2-------------|
A|----------------|----------------|----------------|----------------|
E|----------------|----------------|----------------|----------------|
  Wanting...  Dark...            Cold...                            And...

Bass
E|----------------|----------------|----------------|----------------|
B|----------------|----------------|----------------|----------------|
G|------------020-|------------0---|----------------|----------------|
D|2-----22--02---2|0-----0-0-02--7\|----------------|------02--------|
A|----------------|----------------|3-------3-3-3-35|0-0-0---3-------|
E|----------------|----------------|----------------|----------03--3-|

Guitar
E|----------------|----------------|----------------|----------------|
B|----0-----------|----------------|----------------|----0-------0---|
G|--0---0-0-------|----5-----------|----5-----------|--------0-----0-|
D|----------------|5-4---5-5~~~~~~~|5-5---5---------|--2-------------|
A|----------------|----------------|----------------|----------------|
E|----------------|----------------|----------------|----------------|
  Wanting...    Do...            Sahayaid...                       Be-


Chorus  (X3 this time)

Bass
E|----------------|----------------|
B|----------------|----------------|
G|----------------|----------------|
D|----------------|----------------|
A|--------------0-|3---3---0-0---0-|
E|3---3-1-3---3---|-------3--------|

Guitar
E|----------------|----------------|
B|----------------|----3-----------|
G|------------4---|----------2-----|
D|--------*35---5-|2------(2)------|
A|----------------|----------------|
E|----------------|----------------|

Verse 2

Bass
E|----------------|----------------|----------------|----------------|
B|----------------|----------------|------1---------|----------------|
G|------------020-|------------020-|------------0-02|----------------|
D|2---------02---2|0-----0-0-02---2|-----------2----|------02------0-|
A|----------------|----------------|3-------3-3-----|0-------3-03----|
E|----------------|----------------|----------------|----------------|

Guitar
E|----------------|----------------|----------------|----------------|
B|----0-----------|----------------|----------------|----0-------0---|
G|2-0---0---------|----5-----------|----5-----------|--------0-0---0-|
D|----------------|5-4---5-5~~~~~~~|5-5---5---------|--2---2--2------|
A|----------------|----------------|----------------|----------------|
E|----------------|----------------|----------------|----------------|
  Take...       Weak...               Died...          I...

Bass
E|----------------|----------------|----------------|----------------|
B|----------------|----------------|----------------|----------------|
G|------------020-|------------0---|----------------|----------------|
D|2-----22--02---2|0-----0-0-02--7\|----------------|------02--------|
A|----------------|----------------|3-------3-3-3-35|0-0-0---3-------|
E|----------------|----------------|----------------|----------03--3-|

Guitar
E|----------------|----------------|----------------|----------------|
B|----0-----------|----------------|----------------|----0-------0---|
G|--0---0---------|----5-----------|----5-----------|--------0-----0-|
D|----------------|5-4---5-5~~~~~~~|5-5---5---------|--2---2---------|
A|----------------|----------------|----------------|----------------|
E|----------------|----------------|----------------|----------------|
  Take...        Do...            Sahayaid...


Chorus X2

Post Chorus   (X3 this time)

Bass
E|----------------|----------------|
B|----------------|----------------|
G|----------------|----------------|
D|----------------|----------------|
A|--------3-------|5-----3-3---3-3-|
E|3-----1-------3-|----------------|

Guitar
E|----------------|----------------|
B|----3-------3---|----8-----------|
G|------0-5-------|7-----7--47-4---|
D|5-------5-----5-|7-------5-----5-|
A|5-------3-------|5---------------|
E|3---------------|----------------|


Interlude

Bass
E|----------------|----------------|----------------|----------------|
B|----------------|------3---------|------1---------|----3-----------|
G|------------020-|------------0---|----------------|-------2-----02-|
D|2-------2-02---2|0-------0-02--7\|----------2/5-57|0-------0-0-0---|
A|----------------|----------------|3-------3-------|----------------|
E|----------------|----------------|----------------|----------------|

Guitar
E|----------------|----------------|----------------|----------------|
B|----------------|----------------|----------------|----------------|
G|----------------|----------------|----------------|--------2-----2-|
D|----------------|----------------|----------------|------4-----4---|
A|----------------|----------------|----------------|----------------|
E|----------------|----------------|----------------|----------------|


Bass
E|----------------|----------------|----------------|----------------|
B|----------------|------3---------|----1-------1---|----3-----------|
G|------------020-|------------0---|----------------|----------------|
D|2-----222-02---2|0-------0-02--7\|----------------|0-0---00000-----|
A|----------------|----------------|3------33-3----0|----------------|
E|----------------|----------------|----------------|-----------02233|

Guitar
E|----------------|----------------|----------------|------0-----0---|
B|----------------|----------------|----------------|------------0---|
G|----0-------0---|----2-----------|----0---0-0---0-|----2---------0-|
D|2-2-------2---2-|---4--0---4-7-4_|2-2---2-*2--2--/|4-4-----------2-|
A|----------------|---4------------|----------------|----------------|
E|----------------|----------------|----------------|----------------|


Guitar Solo
[ Tab from: http://www.guitartabs.cc/tabs/m/moist/believe_me_tab.html ]
Bass
E|----------------|----------------|----------------|----------------|
B|----------------|----------------|----------------|----------------|
G|----------------|----------------|----------------|----------------|
D|--------2---2---|4---4-----------|--------2---2---|4---4-----------|
A|0------0-------0|------010--00-1-|0---0--0-------0|------010--00-1-|
E|------3-------3-|----------------|------3-------3-|----------------|

Guitar
E|66/88-888\666-66|66/88888a-8-8-6/|8-8\6-6/8-8\6-6_|5555/\555555/\55|
B|8/aaa-aa\8888-88|8/aaaaaaa-aaaa8/|a-a\8-8/a-a\8-8_|6666666666666666|
G|----------------|----------------|----------------|----------------|
D|----------------|----------------|----------------|----------------|
A|----------------|----------------|----------------|----------------|
E|----------------|----------------|----------------|----------------|

Bass
E|----------------|----------------|----------------|----------------|
B|----------------|----------------|----------------|----------------|
G|----------------|----------------|----------------|----------------|
D|--------2---2---|----3-----------|--------2---2---|----3--3--3-----|
A|0---0--0------3-|----------------|0---0--0------3-|----------------|
E|------3---------|1-------1---1-3-|------3---------|1-----1--1--0-1-|

Guitar
E|66/88-888\666-66|66/88888a-8-8-6/|8-8\6-6/8-8\6-6_|5-555-55-5-55555|
B|8/aaa-aa\8888-88|8/aaaaaaa-aaaa8/|a-a\8-8/a-a\8-8_|6-666-66-6-66666|
G|----------------|----------------|----------------|----------------|
D|----------------|----------------|----------------|----------------|
A|----------------|----------------|----------------|----------------|
E|----------------|----------------|----------------|----------------|
                                                                   Be-

Chorus (X2)

Post Chrous (X3)

Outro

Bass
E|----------------|----------------|----------------|----------------|
B|----------------|----------------|----------------|----------------|
G|----------------|----------------|----------------|----------------|
D|--------2---2---|----------------|--------2---2---|----------------|
A|0---0--0------02|----------------|0---0--0------02|----------------|
E|------1---------|1---1-1-1-111-1-|------1---------|1---1-1-1-1-1-1-|

Guitar
E|8-8\6-6/8-8\6-6_|5555/\555555/\55|8-8\6-6/8-8\6-6_|5555/\555555/\55|
B|a-a\8-8/a-a\8-8_|6666666666666666|a-a\8-8/a-a\8-8_|6666666666666666|
G|----------------|----------------|----------------|----------------|
D|----------------|----------------|----------------|----------------|
A|----------------|----------------|----------------|----------------|
E|----------------|----------------|----------------|----------------|


Guitar
E|66/88-888\666-66|66/88888a-8-8-6/|8-8\6-6/8-8\6-6_|5---------------|
B|8/aaa-aa\8888-88|8/aaaaaaa-aaaa8/|a-a\8-8/a-a\8-8_|6---------------|
G|----------------|----------------|----------------|----------------|
D|----------------|----------------|----------------|----------------|
A|----------------|----------------|----------------|----------------|
E|----------------|----------------|----------------|----------------|

Bass
E|----------------|----------------|----------------|----------------|
B|----------------|----------------|----------------|----------------|
G|----------------|----------------|----------------|----------------|
D|--------2---2---|----------------|--------2---2---|----------------|
A|0---0--0------02|----------------|0---0--0------02|----------------|
E|------1---------|1---1-1-1-111-1-|------1---------|1---------------|


Let ring for a few seconds, and that's it!  Here's the words:

Believe me,
Touched by a God,
Touched by you...
You know I never asked you to,
Believe in me,
It's all I can do,
Things you never said...

And wanting you,
To reach out from the dark,
To wake up from the cold...
And wanting you,
It's all I can do,
Things you never sahayaid...

Believe me,
Did we ever try?
Believe me,
Keep it all to yourself...
Believe me,
I really wanted to die...

I'll take the note,
The words that say I'm weak,
That show I should have died...
Crumpled in the fire...
I'll take the note,
It's all I can do,
Things I never sahayaid...

Believe me,
Did you ever try?
Believe me,
Just keepin it all to yourself.                             _
                           (So I'm)                       o/ |
burning up your pictures,                                o/  /o
Lay you in this shallow grave,                          o/  /o       
So I'm washing clean your body,                         | _/o
For the promises I never made,                          //
I'm burning up our pictures,                           //
Still my love remains the same...                     //    
                                                     //
Believe me,                                         //
Keep it all to yourself...                         //
Believe me,                                       //
I really wanted to die...                    ____//
                    (so I'm)                /   //\         ||||
Burning up your pictures,                  /  _//  \       /||||\
Lay you in this shallow grave,             | / \   /      /_    _\
So I'm washing clean your body,        ____/ \_/__/      |  |
For the promises I never made,        /        /        (|   /\   |)
I'm burning up our pictures,         /         \         |  ____  |
Still my love remains the same...   /           \         \ \__/ /
                                    \            )         \____/
Ohh, remains the same...             \          /
Ohh no, remains the same...           \________/
Ohh ho, remains the same...
Remains the same...

That's it!  Any corrections, comments, etc, please send them to me at:
    vvhat_is@hotmail.com


=====

                                Believe Me
                             By MOIST on "Silver"


[Intro] [Bass]

Believe me
Touched by god
Touched by you
You know i never asked you
To Believe in me
It's all i can do
Things you never said

[Guitar]

Em
And wanting you
                      D
to Reach out from the dark
                    C                      Am    C
To wake up from the cold
Em
And wanting you
             D
Is all i can do
                 C                         Am    C
Things you never said


G
Believe me
C      F
Did we ever try
G
Believe me
C       F
Keep it all to yourself
G
Believe me
C       F
I never wanted to die


Em
I'll take the note
                       D
The words that say i'm weak
                        C
That show i should have died
Am              C
Crumpled in the fire


Em
I'll take the note
               D
It's all i can do
               C                           Am    C
Things i never said


G
Believe me
C       F
Keep it all to yourself
G
Believe me
C       F
I never wanted to die


       G               Eb
So i'm burning up your pictures
        F
Lay you in this shallow grave
       G                  Eb
So i'm washing clean your body
        F
For the promises i never made


    G               Eb
I'm burning up your pictures
         F
Still my love remains the sameEm

-Solo-


G
Believe me
C       F
Keep it all to yourself
G
Believe me
C       F
I never want to die

       
       G               Eb
So i'm burning up your pictures
        F
Lay you in this shallow grave
       G                  Eb
So i'm washing clean your body
        F
For the promises i never made


    G               Eb
I'm burning up your pictures
         F
Still my love remains the same


[End]

Chords Used:

    G  C  D  F  Eb  Em  Am
e |-3--0--3--1--6---0---0---|
B |-0--1--2--1--8---0---1---|
G |-0--0--3--2--8---0---2---|
D |-0--2--0--3--8---2---2---|
A |-2--3-----3--6---2---0---|
E |-3--0-----1--6---0---0---|

I don't include the "solo" part.

If you have the tab of it, i'll be glad to get it.

If you have any questions/corrections, send a email to
skywalker@gamemaster.qc.ca.
Comments