Moi Dix Mois - Vizard Chords & Tabs

 

Vizard Chords & Tabs

Moi Dix Mois Chords & Tabs

Version: 1 Type: Tab 0 ratings
1 star 2 stars 3 stars 4 stars 5 stars
comments

Vizard Tab

Moi Dix Mois - "Vizard"
From "Nocturnal Opera"
Guitarist - Mana-sama

Standard Tuning, Both guitars.
h-hammer on
PM-palm mute
V-vibrato
PH-pinch harmonics

Intro Riff:
GTR 1
|----------------------------|
|----------------------------|
|----------------------------|
|--2-2-2-2-------4-4-4-4-----|
|--2-2-2-2-------4-4-4-4-3V--|
|--0-0-0-0-3V----2-2-2-2-----|
|PM.......       .......     |
|                            |
|GTR2                        |
|----------------------------|
|----------PH------------PH--|
|----------------------------|
|--2-2-2-2-------4-4-4-4-----|
|--2-2-2-2-------4-4-4-4-3V--|
|--0-0-0-0-3V----2-2-2-2-----|
PM .......       .......

Fast Riff:
|---------------------------------|
|---------------------------------|
|---------------------------------|
|---------------------------------|
|------------------------------3--|
|--00000010000050-00000010-0-0-3--|
[ Tab from: http://www.guitartabs.cc/tabs/m/moi_dix_mois/vizard_tab.html ]
Heavy Bridge:
|------------------------------------|
|------------------------------------|
|------------------------------------|
|--66666666555555553333333322222222--|
|--66666666555555553333333322222222--|
|--44444444333333331111111100000000--|
PM  ....... ....... ....... .......

Verse(? I call it that.. if only to simplify things)
|---------------------------|
|-----------------------PH--|
|---------------------------|
|--2---2--2---2-2--2--2-3V--|
|--2---2--2---2-2--2--2-----|
|--0---0--0---0-0--0--0-----|

Chorus(? Again, only for simplicity)
|---------------|
|---------------|
|---------------|
|--2~----5--2~--|
|--2~----5--2~--|
|--0~----3--0~--|

Strange Bridge riff:
|-----------------------------------|
|--4-0---0---------4-0---0-----3h5--|
|------3---4---0-------3---4--------|
|------------5---5-----------5------|
|-----------------------------------|
|-----------------------------------|
PM .   .     .   . .   .     .

After 2 Times another guitar comes in with the same riff at a higher octave.
Comments