Mogwai - Katrien Chords & Tabs

 

Katrien Chords & Tabs

Mogwai Chords & Tabs

Version: 1 Type: Tab 0 ratings
1 star 2 stars 3 stars 4 stars 5 stars
comments

Katrien Tab

 **************************************
 *             Katrien                *
 *		 by                   *
 *	       Mogwai                 *
 **************************************
   taken from the album Young Team

   Transcribed by Graeme Tait 
                              
   on 18/2/99
   Mail me if you have any questions/comments or think I've done it all wrong.
------------------------------------------------------------------------------------------
b - bend   /or\ slide note   h - hammer on   p - pull off   H - harmonic


Play quite hard letting the strings ring out as much as possible.
e---0--0--0--0-0--0--0--0--0--0-0--0---|
b---0--0--0--0-0--0--0--0--0--0-0--0---|
g---2--2--2--2-2--2--0--0--0--0-0--0---|
d---2--2--2--2-2--2--0--0--0--0-0--0---|
a---0--0--0--0-0--0--2--2--2--2-2--2---|
e--------------------3--3--3--3-3--3---|

Play a few times over above chords
e---15-15-15-15-17-17-19-19--19-17-15--17---|
b-------------------------------------------|
g-------------------------------------------|
d-------------------------------------------|
a-------------------------------------------|
e-------------------------------------------|
[ Tab from: http://www.guitartabs.cc/tabs/m/mogwai/katrien_tab.html ]
These chords are also played in a few places instead of above chords.
e-------------------------|
b-------------------------|
g---5-5-5-5-5/7-7-7-7-7---|
d---5-5-5-5-5/7-7-7-7-7---|
a---3-3-3-3-3/5-5-5-5-5---|
e-------------------------|

Repeat this part quietly after loud chords have finished.
e--------------------------------|
b--------------------------------|
g----------12---------12---------|
d------10------9--10------9-10---|
a---0----------------------------|
e--------------------------------|

Note that the first chord in this section is played for quite a while before the other
chords come in, but there's no point me writing them all out.
e---------------------------------------------------------|
b---------------------------------------------------------|
g---------------------------------------------------------|
d---2-2-2-2-2-2-2-2-2-2-2-2-2-3-3-3-3-3-3-5-5-5-5-5-5-5---|
a---0-0-0-0-0-0-0-3-3-3-3-3-3-3-3-3-3-3-3-3-3-3-3-3-3-3---|
e---------------------------------------------------------|

This is just the start of this section. The note keeps getting higher but it's easy
enough to work out which notes are being played.
e---------------------------------------------------------------------------------|
b---------------------------------------------------------------------------------|
g---9-9-9-9-9-9-9-9/12-12-12-12-12-12-12-12-12-12/17-17-17-17-17-19-19-19-19-19---|
d---------------------------------------------------------------------------------|
a---------------------------------------------------------------------------------|
e---------------------------------------------------------------------------------|
Comments