Mogwai - Ex-cowboy Chords & Tabs

 

Ex-cowboy Chords & Tabs

Mogwai Chords & Tabs

Version: 1 Type: Bass Tab 0 ratings
1 star 2 stars 3 stars 4 stars 5 stars
comments

Ex-cowboy Bass Tab

Ex-Cowboy
Mogwai

Corrections to - the_black_amnesias@hotmail.co.uk

Tabbed by Lee Tyrrell

Don't you just love Mogwai bass lines?

You need VERY good reach for Quiet Part 2

~ - Let Ring

Main Riff:

G---9-----7-----7---7------5/7-7/9-|
D-----7-----7---------10-----------|
A-0-----0-----0--------------------|
E-----------------8------8---------|

Quiet Part 1

G-9~---10~---|
D-7~---7~----|
A------------|
E------------|

Quiet Part 2

G-9~--10~--12~--7~--|
D-7~--7~---7~---7~--|
A-------------------|
E-------------------|
[ Tab from: http://www.guitartabs.cc/tabs/m/mogwai/ex_cowboy_btab.html ]
Quiet Part 3                    Quiet Part 3 (A different way to play it)

G-9~---10--7--7h9-              G-9~---9--9--9~---|
D-7~---7---7--7-7-              D-7~---7--7--7~---|
A-----------------              A-----------------|
E-----------------              E-----------------|

Build Up

G--9-9-9-9-|
D-7-7-7-7--|
A----------|
E----------|

End

G-------    -9~----|
D-2~----    -7~----|
A-0~----    -------|
E------- OR -------|     They're the same chord only one's higher

Structure

0:00  Main Riff
3:36  QP1
3:47  QP2
3:56  QP3
3:30  Build Up
4:35  Main Riff
7:47  QP1
7:55  QP2
8:05  QP3
8:45  End
Comments