Moffatts - Walking Behind Chords & Tabs

 

Walking Behind Chords & Tabs

Moffatts Chords & Tabs

Version: 1 Type: Tab 0 ratings
1 star 2 stars 3 stars 4 stars 5 stars
comments

Walking Behind Tab

   
The Moffatts - Walking Behind

Intro:

Guitar 1:
e------0-0-0-------0-0-0-------3-3-3-------2-2-2--|
B------0-0-0-------1-1-1-------3-3-3-------3-3-3--|
G------0-0-0-------0-0-0-------0-0-0-------2-2-2--|   x4
D------2-2-2-------2-2-2-------0-0-0--0-0--0-0-0--|
A------2-2-2--3-3--3-3-3-------2-2-2--------------|
E-0-0--0-0-0--------------3-3--3-3-3--------------|
  ...         ...         ...         ...

Guitar 2:            Guitar 3:
e------------------|-----------------------------|
B------------------|-----------------------------|
G--7--7------------|-----4~---------------0----0-|
D--9~---7-5-7-5----|--2~-----4^half-2---2----0---|
A---------------7--|------------------3----2-----|
E------------------|-----------------------------|


Verse:

Guitar 1:
e------0-0-0-------0-0-0-------3-3-3-------2-2-2--|
B------0-0-0-------1-1-1-------3-3-3-------3-3-3--|
G------0-0-0-------0-0-0-------0-0-0-------2-2-2--|   x4
D------2-2-2-------2-2-2-------0-0-0--0-0--0-0-0--|
A------2-2-2--3-3--3-3-3-------2-2-2--------------|
E-0-0--0-0-0--------------3-3--3-3-3--------------|
  ...         ...         ...         ...


e---------------------------------|
B---------------------------------|
G-2-2-2-2-2-2-2-2-2-2-2-2-2-2-2-2-|
D-2-2-2-2-2-2-2-2-2-2-2-2-2-2-2-2-|
A-0-0-0-0-0-0-0-0-0-0-0-0-0-0-0-0-|
E---------------------------------|
  ...............................


Chorus:

Guitar 1:
e--3-3--0-0--0-0--2-2-|-3-3--0-0--0-0--2-2-|
B--3-3--1-1--0-0--3-3-|-3-3--1-1--0-0--3-3-|
G--0-0--0-0--0-0--2-2-|-0-0--0-0--0-0--2-2-|
D--0-0--2-2--2-2--0-0-|-0-0--2-2--2-2--0-0-|
A--2-2--3-3--2-2------|-2-2--3-3--2-2------|
E--3-3-------0-0------|-3-3-------0-0------|

Guitar 2: Fill
e-------------|
B--7^half-8~--|
G-------------|
D-------------|
A-------------|
E-------------|

[ Tab from: http://www.guitartabs.cc/tabs/m/moffatts/walking_behind_tab.html ]
e--0-0--xxxx--0-0--xxxx--3-3--xxxx--2-2--|-----------------|
B--0-0--xxxx--1-1--xxxx--3-3--xxxx--3-3--|-----------------|
G--0-0--xxxx--0-0--xxxx--0-0--xxxx--2-2--|-2-2-2-2-2-2-2~--|
D--2-2--xxxx--2-2--xxxx--0-0--xxxx--0-0--|-2-2-2-2-2-2-2~--|
A--2-2--xxxx--3-3--xxxx--2-2--xxxx-------|-0-0-0-0-0-0-0---|
E--0-0--xxxx-------xxxx--3-3--xxxx-------|-----------------|
                                                   ...

Solo:

Guitar 1:
* Solo contains pinch harmonics *
e-------------------------------------------------------------------|
B-------------------------------------------------------------------|
G-7~-7~-7~-7~-7~-7~-7~-7~-7~-7~-7~-7~-7~/9-7-5-4-4h5p4-------4h5/7~-|
D------------------------------------------------------5~-4h5-------|
A-------------------------------------------------------------------|
E-------------------------------------------------------------------|

Solo cont'd
e-----10------10-----10/12-10-8-7-7h8p7-----------------------------|
B-7-8-----7-8----7-8--------------------8~-8~-7---------------------|
G-----------------------------------------------9-7~-7/9--9-9-9-----|
D-------------------------------------------------------------------|
A-------------------------------------------------------------------|
E-------------------------------------------------------------------|


Solo cont'd
e-------------------------------------------------------------------|
B-------------------------------------------------------------------|
G-9/11-11-11-11/12-12-12-12/14-14-14-14/16-16-16-16/17-17-17-17/-19-|
D-------------------------------------------------------------------|
A-------------------------------------------------------------------|
E-------------------------------------------------------------------|


Solo cont'd
e-------------------------------------------------------------------|
B-------------------------------------------------------------------|
G--19-19-19-19-19-19-19-19-19^-19^-19^-19^-19^full------------------|
D-------------------------------------------------------------------|
A-------------------------------------------------------------------|
E-------------------------------------------------------------------|

Let's bring tabs to the masses!
Comments