Moffatts - Typical Chords & Tabs

 

Typical Chords & Tabs

Moffatts Chords & Tabs

Version: 1 Type: Tab 0 ratings
1 star 2 stars 3 stars 4 stars 5 stars
comments

Typical Tab

   
Intro/Verse1:(not exact but close)
----------0----------0-------------------|
---------------0-------------------------|
------------4-----4------4---------------|
-----4-----------------------------------|
--2--------------------------------------|
-----------------------------------------|

Pre-chorus: (I can't believe...)
C5#-G5#-A5-C5#-G5#-F5#
Fill 1

Chorus:
Em-A-F5#- B5 x3

A-F5#-G5#-A5

Verse2:
[ Tab from: http://www.guitartabs.cc/tabs/m/moffatts/typical_tab.html ]
-----------------------------------------------------------------------|
-----------------------------------------------------------------------|
-9-9-9--8--9--8--9-----------------------------------------------------|
-9-9-9--9--9--9--9-----------------------------------------------------|
-7-7-7--7--7--7--7-----------------------------------------------------|
-----------------------------------------------------------------------|

Pre-chorus
Chorus: after you repreat the first part 3 times it goes
(you're so miserable)
A-F5#-G5#-F5#-A-F5#-G5#-A5

Bridge:
C/G             G
its always ...sunshine
D             Am       B5
day by day...someone...oh

Pre-chorus
Chorus
and you repeat the part of "you're so miserable" alot of times and ends in
A5

Chords:
Em         A        C/G      A5
-0---    --2---    -0----   ------|
-0---    --2---    -1----   ------|
-0---    --2---    -0----   ------|
-0---    --2---    -2----   --7---|
-2---    --0---    -3----   --7---|
----     -----     -3----   --5---|

well this is a great song and it's fun to play
hope you enojy it any comments or corrections to dny555@hotmail.com
Comments