Moffatts - Lets Party Chords & Tabs

 

Lets Party Chords & Tabs

Moffatts Chords & Tabs

Version: 1 Type: Tab 0 ratings
1 star 2 stars 3 stars 4 stars 5 stars
comments

Lets Party Tab

   
The Moffatts - Let's Party


Using normal key.

Intro:
D, Em, C, G
D, Em, C

Verse:
D          Em
Its Friday night
C                             G
The time is right to give you call
D            Em               C
I'll pick you up at the dance hall
D        Em
Open the door
C           G
Get on the floor
D            Em               C
It's time to dance the night away

Chorus:
     D       Em        C
Let's party, party
     D       Em        C        G
Let's party, all night long
     D       Em        C
Let's party, party
          G
all night long
          G
all night long

Verse:
D       Em            C                  G
Bright lights cut the night and shine on you
D           Em                C
Tonight you found your dancin shoes
D       Em  C             G
If it's slow for rock 'n' roll
D            Em              C
It's time to dance the night away

Chorus
[ Tab from: http://www.guitartabs.cc/tabs/m/moffatts/lets_party_tab.html ]
Bridge:
        D        Em
I wanna hold you tight
       C        G
all through the night
         D        Em      C
cause it makes me feel so right
        D        Em
I wanna spin you 'round
      C      G
and take you down
D
rock this town to the ground

Chorus

Solo:
Bm, G, Bm, Am, C
D, Dsus2, D, Dsus2, D X4

 2nd Guitar
|-7------------------------------8---8---7-----8---8---7----8---8---7-|
|-7------------------------------8---8---7-----8---8---7----8---8---7-|
|-7------------------------------8---8---7-----8---8---7----8---8---7-|
|-9-------7-9---9---7-----7-9----10--10--9-----10--10--9----10--10--9-|
|-9---7/9-------------7/9--------10--10--9-----10--10--9----10--10--9-|
|-7------------------------------8---8---7-----8---8---7----8---8---7-|

  *  *
|-7------------------------------5-------------------------7---7-5----7--5-|
|-7------------------------------5-------------------------7---7-5----7--5-|
|-7------------------------------5-------------------------7---7-5----7--5-|
|-9-------7-9---9---7-----7-9----7-------------------------9---9-7----9--7-|
|-9---7/9-------------7/9--------7---------------------5---9---9-7----9--7-|
|-7------------------------------5---5--7--8---5/8-7-8-----7---7-5----7--5-|

|-------------7---7-5----7--5--------------7---7-5----7--5-----------------------------------|
|-------------7---7-5----7--5--------------7---7-5----7--5-----------------------------------|
|-------------7---7-5----7--5--------------7---7-5----7--5-----------------------------------|
|-------------9---9-7----9--7--------------9---9-7----9--7-------------7-7-7-7-7-7-7-7-7-7-7-|
|---------5---9---9-7----9--7----------5---9---9-7----9--7----------5--5-5-5-5-5-5-5-5-5-5-5-|
|-5/8-7-8-----7---7-5----7--5--5/8-7-8-----7---7-5----7--5--5/8-7-8--------------------------|

Chorus X5



From: V.Chiang 
Comments