Moffatts - If Life Is So Short Chords & Tabs

 

If Life Is So Short Chords & Tabs

Moffatts Chords & Tabs

Version: 1 Type: Tab 0 ratings
1 star 2 stars 3 stars 4 stars 5 stars
comments

If Life Is So Short Tab

   
The Moffatts - If Life Is So Short

Intro:
Guitar
       G                Em               D               C
|-------3------3-|-------0------0-|-------3-2-----3|-------3------3-|
|-----3----3-----|-----0----0-----|-----3-----3----|-----3----3-----|
|---0--------0---|---0--------0---|---2---------2--|---0--------0---|
|----------------|----------------|-0--------------|----------------|
|----------------|----------------|----------------|-3--------------|
|-3--------------|-0--------------|----------------|----------------|

       G                Em               D               C
|-------3------3-|-------0------0-|-------3-2-----3|-3--------------|
|-----3----3-----|-----0----0-----|-----3-----3----|-3--------------|
|---0--------0---|---0--------0---|---2---------2--|-0--------------|
|----------------|----------------|-0--------------|-0--------------|
|----------------|----------------|----------------|-3--------------|
|-3--------------|-0--------------|----------------|----------------|
[ Tab from: http://www.guitartabs.cc/tabs/m/moffatts/if_life_is_so_short_tab.html ]
Intro:
Bass
|-------------------------------------------------------------------------------------|
|-------------------------------------------------------------------------------------|
|-------------------------------------------------------------------------------------|
|-------------------4/2--------------------5-7-5-4-5------5/7-9-----10/9-7------9/7-5-|
|------------5-7--------5------7-5----------------------------------------------------|
|----------------------------------8--------------------------------------------------|


The song play as G,Em,D,C

Chorus:
G,D,Em,C

Lead:
Distorted Guitar
|------------------------------------------------------3/5---5-3---5/7---7-5---3/5/3--|
|-8/7---------------------------------------------------------------------------------|
|-----7--------7/9---9-7---5-4-5-5-4-----------4-5-7----------------------------------|
|------------9-----------------------------4/5----------------------------------------|
|-------------------------------------------------------------------------------------|
|-------------------------------------------------------------------------------------|



From: V.Chiang 
Comments