Moffatts - Girl Of My Dreams Chords & Tabs

 

Girl Of My Dreams Chords & Tabs

Moffatts Chords & Tabs

Version: 2 Type: Tab 0 ratings
1 star 2 stars 3 stars 4 stars 5 stars
comments

Girl Of My Dreams Tab

   
"Girls of My Dreams"-The Moffatts
Album: Chapter 1: New Beginning
Tabbed By:  John Culbert
E-mail: culbertt@hurontel.on.ca

Standard Tuning
E A D G B E
Played on Acoustic


/=Slide down
\=Slide up
h=hammer on
p=pull off
Intro x2
E----------------------------------------------------------------------
B----------------------------------------------------------------------
G--4h5-7-7--5h7p5/4-/2\4-0--0h2h4\5/4/2-0------------------------------
D-------------------------------------------0-0h2----------------------
A----------------------------------------------------------------------
E----------------------------------------------------------------------

            G           Am
You are the girl..of my dreams
      Em  D         C
In my heart, I believe
            G           Am
You are the girl of my dreams
   Em D       C
Baby,   of my dreams

---Verse 1
        G       Am
All alone in my room
C                    G
Wishin that you were here
G                 Am
Without you in my arms
    C                       G   D/F#
I'm holdin back all of the tears
        Em         D
Without you in my life,
Am              G      Fill 1
I'll never be satisfied
[ Tab from: http://www.guitartabs.cc/tabs/m/moffatts/girl_of_my_dreams_tab_ver_2.html ]
--Chorus
            G           Am
You are the girl..of my dreams
      Em  D         C
In my heart, I believe
            G           Am
You are the girl of my dreams
   Em D       C
Baby,   of my dreams

---Verse 2
     G      Am
Sometimes I feel
   C                    G
I coulda been better to you
      G          Am
All I want..is a chance
   C                     G      D/F#
To prove that my love is true
        Em         D
Without you in my life,
Am              G      Fill 1
I'll never be satisfied

--Chorus

--Solo (Repeat Intro)

---Bridge
Am              G       C
Baby, let's go back in time,
                                Am
to when our hearts would shine
                G    C
And I could hold you tight..
                D
in my dreams at night..
--Chorus
--Chorus w/Intro
--Chorus w/Intro
--Chorus Fades


Fill 1
E----------------3------------------------------------------------------
B----------------------------------------------------------------------
G----------0------------------------------------------------------------
D------2----------------------------------------------------------------
A----3------------------------------------------------------------------
E----------------------------------------------------------------------
I think that's perfect. Any updates, just mail me. JC>


Comments