Moffatts - Girl Of My Dreams Chords & Tabs

 

Girl Of My Dreams Chords & Tabs

Moffatts Chords & Tabs

Version: 1 Type: Tab 0 ratings
1 star 2 stars 3 stars 4 stars 5 stars
comments

Girl Of My Dreams Tab

   
The Moffatts-Girl Of My Dreams
by edward@vision.net.id
submitted by Edward
Intro:
(you can either do this with chords or stick with the solo)
G Am Em D C

Solo:
|--7-8h10-10---10-8-7-5--7-3---3-3h5-7-8-7-3-3-----0---
|----------------------------------------------3-3-----
|------------------------------------------------------
|------------------------------------------------------
|------------------------------------------------------
|------------------------------------------------------


Chorus:

            G 
You are the girl
      Am
Of my dreams
      Em,D
In my heart
      C
I believe
            G
You are the girl
      Am
Of my dreams
     Em,D        
Baby,      
      C
Of my dreams

Verse1:
[ Tab from: http://www.guitartabs.cc/tabs/m/moffatts/girl_of_my_dreams_tab.html ]
         G      Am
All alone in my room
C                     G
Wishing that you were here
        G         Am
Without you in my arms
C                          G G/F#
I'm holding back all these tears
        Em        D 
Without you in my life
Am         Bm      C
I'll never be satisfied

*Back to chorus*

Verse 2:
    G       Am
Sometimes I feel
C                         G
I could've been better to you
      G            Am
All I want is your chance
C                        G G/F#
To prove that my love is true
        Em     D
Without you in life
Am         Bm      C
I'll never be satisfied

*Back to chorus*

Solo:(twice)
|--7-8h10-10---10-8-7-5--7-3---3-3h5-7-8-7-3-3-----0---
|----------------------------------------------3-3-----
|------------------------------------------------------
|------------------------------------------------------
|------------------------------------------------------
|------------------------------------------------------

or Chords:
G Am Em,D C 2x

Am            Bm      C
Baby let's go back in time
                         Am
To when our hearts could shine
          Bm         C
And I could hold you tight
                D
In my dreams at night

*Back to chorus*
repeat until fade
Comments