Moen Don - Two Hands, One Heart Intro Chords & Tabs

 

Two Hands, One Heart Intro Chords & Tabs

Moen Don Chords & Tabs

Version: 1 Type: Tab 0 ratings
1 star 2 stars 3 stars 4 stars 5 stars
comments

Two Hands, One Heart Intro Tab

   
So yeah..hi..
hope u enjoy this song..
I like all of Don Moen's compositions..
because they're kinda different..
from the arrangements to the chords and especially the lyrics..
i know that his songs are hard, too..
but here is a simpler version of his 'Two Hands, One Heart'
from his album 'I Will Sing'.


NOTE: this is the key G version (male version).i have another one for the females..

Here's how the intro goes..
[ Tab from: http://www.guitartabs.cc/tabs/m/moen_don/two_hands_one_heart_intro_tab.html ]
 
Intro: --------------------
       --------------------
       ----------0---------
       --0--0h2------------
       --------------------
       --------------------
       C-G-D-Em,C-G-Am-D,
       
       --------------------
       --------------------
       ----------0---------
       --0--0h2------------
       --------------------
       --------------------
       C-G-D-Em,C-G-Am-D-G,     B7



 
       --------------------
       --------------------
       ----------0---------
       --0--0h2------------
       --------------------
       --------------------

 




       --------------------
       ----------0---------
       --0--0h2------------
       --------------------
       --------------------



(Play this part stronger and louder. Give some power to your playing.)



       --------------------
       --------------------
       ----------0---------
       --0--0h2------------
       --------------------
       --------------------





 So yeah..hope you enjoyed it..I am planning to work on more songs sooner..

--Sister in Christ,
  Sarah Diamsay
Comments