Moe - Waiting For The Punchline Chords & Tabs

 

Waiting For The Punchline Chords & Tabs

Moe Chords & Tabs

Version: 1 Type: Tab 0 ratings
1 star 2 stars 3 stars 4 stars 5 stars
comments

Waiting For The Punchline Tab

   
this song is pretty easy. the intro is like this

----------3h5---------------------------------------------
-----0h2--3h5---------------------------------------------
-----0h2--------------------------------------------------
-----0h2--------------------------------------------------
----------------------------------------------------------
----------------------------------------------------------

you do that a few times then when rob starts singing its

A D C and then repeat the intro

then its

Em                       D                     C
waiting for the puchline,and ive been here for seven days
[ Tab from: http://www.guitartabs.cc/tabs/m/moe/waiting_for_the_punchline_tab.html ]
then repeat the intro and do a few more verses then it goes into

Em                C              A
My mother told me,bout the likes of you...

then they go into a jam which is like 

--------------------------------------------------------
--------------------------------------------------------
--------------------------------------------------------
--------------------------------------------------------
--3-----2--3-2------------------------------------------
----3-5--------6-5--------------------------------------

so on and so forth

well thats about it
if you have any questions e-mail me at gweedo53@aol.com.
peace
Comments