Moe - Rebubula Chords & Tabs

 

Rebubula Chords & Tabs

Moe Chords & Tabs

Version: 1 Type: Tab 0 ratings
1 star 2 stars 3 stars 4 stars 5 stars
comments

Rebubula Tab

Tabbed by:jimmy
Email:OAM144@hotmail.com

Tuning:normal

this is just what i have so far. the parts i have should be correct but its missing a 
amount.  if you know it or have any corrections please email me. Thanks.
                            REBUBULA

intro
 Guitar 1
e|----------------------------------------------------------------------------------|
B|-------3-----------------------3---------------------------3---3----15------------|
G|---0h2---2-----0---0------0h2---2----------------------0h2---2--------------------|
D|-0-----------4---2------0--------------0---0---------0----------------------------|
A|-------------------------------------4---2----------------------------------------|
E|----------------------------------------------------------------------------------|
  I---listen for # of times   -   -   -   - --I      then

 Guitar 2 - fills (I cant figure out the part where G2 plays during the part above)
[ Tab from: http://www.guitartabs.cc/tabs/m/moe/rebubula_tab.html ]
             FIGURE OUT TOTAL # OF TIMES
  this here 3 times           then on the fourth
e|-10-9p7h9p7h9-10----------------10-9p7h9p7h9-10-----|
B|-----------------8--10--------------------------10--|
G|----------------------------------------------------|
D|----------------------------------------------------|
A|----------------------------------------------------|
E|----------------------------------------------------|
   Figure out how many times
e|-14-12-10-7--------------------------------5h7------------|
B|------------10-8----7-8-10-7-8-10-7-----------8-7---------|
G|---------------------------------------------------9-7----|
D|-------------------------------------------------------9--|
A|----------------------------------------------------------|
E|----------------------------------------------------------|
    on the last time
e|-14-12-10-7----------------------------------------------|
B|------------10-8---7-8-10--7-8-10-7---7-7h8--------------|
G|--------------------------------------7-----9--7---------|
D|--------------------------------------7----------9--7----|
A|------------------------------------------------------9--|
E|---------------------------------------------------------|

  Guitar 1's part during the part right above (I tried to match it somewhat)
e|------------------------------------------------------------------------------------|
B|-10-8-7-----------------------------------------------------------------------------|
G|--------9-7------------7-------7---7----7h9-----------------------------------------|
D|------------9------7-9-----7-9------------------------------------------------------|
A|------------------------------------------------------------------------------------|
E|------------------------------------------------------------------------------------|

When the singing starts Guitar 1 plays his first part periodically, listen for it

When the singing starts Guitar 2 plays these chords throughout

    *         *            *
e|------------10-10h12----14-14h15--|
B|--7-7h8-----10-10-------15-15-----|
G|--7-7-------11-11-------14-14-----|
D|--7-7h9-----12-12-----------------|
A|----------------------------------|
E|----------------------------------|
    *= # of times played not shown, listen for it


Thats all i have.  If you have more please email me. THANKS
Comments