Moe - Okayalright Chords & Tabs

 

Okayalright Chords & Tabs

Moe Chords & Tabs

Version: 2 Type: Bass Tab

Okayalright Bass Tab

moe.- okay alright
this sounds completly right
standard tuning

---------------------| intro 2x
-------------3-3-----|
---5----------3-3----|
3-----6-5-3----------|

-------------------------| verse 9x
--------0----------------|
---2-5-2-1-0----33-------|
--3-5--------11----33----|

---------------| chorus 2x
---------------|
----33---------|
-11----33-33---|

-------------------------| verse 9x
--------0----------------|
---2-5-2-1-0----33-------|
--3-5--------11----33----|

---------------| chorus 3x
---------------|
----33---------|
-11----33-33---|
[ Tab from: http://www.guitartabs.cc/tabs/m/moe/okayalright_btab_ver_2.html ]
----------------  ---------------------------| bridge 12x
--------0-------  ---------------------3-3---|
---2-5-2-1-0----  ---2-5-----5--1-0-----3-3--|
--3-5-----------  --3----2-5--------33-------|

---------------------| intro 2x
-------------3-3-----|
---5----------3-3----|
3-----6-5-3----------|

-------------------------|
--------0----------------|
---2-5-2-1-0----33-------|
--3-5--------11----33-33-|


---------------| chorus 3x
---------------|
----33---------|
-11----33-33---|

-----------------------------|
---------------5---0---------|
----33-----2-5---2---1-0-----|
-11----33-3--------------3---|

thats it,you gotta know the song to play it cuase there is wierd timing on the bridge