Moe - Meat Chords & Tabs

 

Meat Chords & Tabs

Moe Chords & Tabs

Version: 2 Type: Bass Tab 0 ratings
1 star 2 stars 3 stars 4 stars 5 stars
comments

Meat Bass Tab

this may not be perfect, but it is close.

introx?
G----4-444-444-444-2---4-444-444-444-2---------------------------|
D----2-222-222-222-0---2-222-222-222-0---------------------------|
A----------------------------------------------------------------|
E----------------------------------------------------------------|

verse x?
G----98-----------98---------------------------------------------|
D------987----------98-------------------------------------------|
A--77-----987---77-----------------------------------------------|
E----------------------------------------------------------------|
[ Tab from: http://www.guitartabs.cc/tabs/m/moe/meat_btab_ver_2.html ]
there is a bridge thing here, but i dont know how to play it
then x4
G----98----------------------------------------------------------|
D------987-------------------------------------------------------|
A--77-----987----------------------------------------------------|
E----------------------------------------------------------------|

chorus,well a start to it at least

G-----9-7---7-9--------------------------------------------------|
D---------9------------------------------------------------------|
A--77------------------------------------------------------------|
E----------------------------------------------------------------|
Comments