Modest Mouse - Worms Vs Birds Chords & Tabs

 

Worms Vs Birds Chords & Tabs

Modest Mouse Chords & Tabs

Version: 4 Type: Tab 0 ratings
1 star 2 stars 3 stars 4 stars 5 stars
comments

Worms Vs Birds Tab

Modest Mouse: Worms v. Birds, Tab by Generic_finn
Standard Tuning

Intro:
e||---------------------------------------------------------------------------------------||
B||---------------------------------------------------------------------------------------||
G||*------11-----11----------/14---------------------------------------------------------*|| (x4)
D||*--12----12-12--12-14--14-----14\12-12-12-----------------------------------------11--*||
A||------------------------------------------14--14-14-14--12-12--14--14-14-14-12-14------||
E||---------------------------------------------------------------------------------------||

e|---------------------------------------------------------------------------------|
B|---------------------------------------------------------------------------------|
G|-----11-----11----------/14-12---------------------------------------------------|
D|-12----12-12--12-14--14--------12-12---------------------------------------------|
A|-------------------------------------14--14-14-14-14-14-14--14-14-14-14-14-14-14-|
E|---------------------------------------------------------------------------------|
[ Tab from: http://www.guitartabs.cc/tabs/m/modest_mouse/worms_vs_birds_tab_ver_4.html ]
Chorus:
e||---------------------------------------------------------------------------||
B||---------------------------------------------------------------------------||
G||*--14---14-14-14-14-14-9---9-9-9-9-9-9-9---------------9---9-9-9-9-9-9-9--*|| (x4)
D||*--14---14-14-14-14-14-9---9-9-9-9-9-9-9-9---9-9-9-9-9-9---9-9-9-9-9-9-9--*||
A||---12---12-12-12-12-12-7---7-7-7-7-7-7-7-9---9-9-9-9-9-7---7-7-7-7-7-7-7---||
E||-----------------------------------------7---7-7-7-7-7---------------------||
1.                                              Self pity me so pitiful
2.   You can see that birds and worms don't get along self righteous me so wrong
3.   You can see that we don't have to get along, self pity me so pitiful
4.   You can see that birds and worms do not agree, and we will crawl

Outro:
e||---------------------------------------------------------------------------------------||
B||---------------------------------------------------------------------------------------||
G||*------11-----11----------/14---------------------------------------------------------*||
D||*--12----12-12--12-14--14-----14\12-12-12-----------------------------------------11--*||
A||------------------------------------------14--14-14-14--12-12--14--14-14-14-12-14------||
E||---------------------------------------------------------------------------------------||

e|-------------------------------------------------------------------------------------||
B|-------------------------------------------------------------------------------------||
G|-----11-----11----------/14-12-------------------------------------------------------||
D|-12----12-12--12-14--14--------12-12-----------------------------------------11-12~~-||
A|-------------------------------------14--14-14-14--12-12--14--14-14-14-12-14---------||
E|-------------------------------------------------------------------------------------||
Comments