Modest Mouse - Worms Vs Birds Chords & Tabs

 

Worms Vs Birds Chords & Tabs

Modest Mouse Chords & Tabs

Version: 3 Type: Tab 0 ratings
1 star 2 stars 3 stars 4 stars 5 stars
comments

Worms Vs Birds Tab

   
----------------------------------------------------------------------------
		      Worms Vs. Birds - Modest Mouse
----------------------------------------------------------------------------
Tabbed by: built to spill
Email: builtospill1234@yahoo.com

Tuning: standard

e--------------------------------------------------------------------------|
B--------------------------------------------------------------------------|
G---11-----11--------14----------------------------------------------------|
D-12--12-12--12-14-14--14-12-12--------------------------------------11-12-|
A------------------------------14-14-14-14-12-12-14-14-14-14-14-12-14------|
E--------------------------------------------------------------------------|

repeat however many times you want.
[ Tab from: http://www.guitartabs.cc/tabs/m/modest_mouse/worms_vs_birds_tab_ver_3.html ]
now this is the part that sounds a little different at the end of this little riff 
the stumming and the lyrics kick in,

e-------------------------------------------------------------------------|
B-------------------------------------------------------------------------|
G---11-----11--------14-12\7----------------------------------------------|
D-12--12-12--12-14-14-------9-9-9-9-7-7-9-9-9-9-9-7-9-11-12---------------|
A-------------------------------------------------------------------------|
E-------------------------------------------------------------------------|

| /  slide up
| \  slide down
| h  hammer-on
| p  pull-off
| ~  vibrato
| +  harmonic
| x  Mute note
============================================================================
I'll figure the strumming part soon. modest mouse fans i love you all. modest mouse is
awsome. peace out, go live life
Comments