Modest Mouse - Teeth Like Gods Shoeshine Chords & Tabs

 

Teeth Like Gods Shoeshine Chords & Tabs

Modest Mouse Chords & Tabs

Version: 1 Type: Tab 0 ratings
1 star 2 stars 3 stars 4 stars 5 stars
comments

Teeth Like Gods Shoeshine Tab

   
MODEST MOUSE
The Lonesome Crowded West
"Teeth Like God's Shoeshine"
Tabbed By Garrett Gold (Yugugelizer)

E |---------------------|
B |------5b-------------|
G |---------------------|
D |4b-4b----4b----------|
A |------------5b-0----0|
E |-----------------3b--|

E |-------------------------|
B |----5-------5------------|
G |-------------------------|
D |4-4---4-4-4---4b---------|
A |-----------------5b-0---0|
E |----------------------3--|

E |-------------------------|
B |-------------------------|
G |----2-----0-----0-----0h2|
D |--0-----4-----0-----0----|
A |2-----0------------------|
E |------------3-----0------|

Harmonics
E |----------------|
B |----------------|
G |-----7-------7-7|
D |--7------7-5----|
A |-------7--------|
E |7---------------|
[ Tab from: http://www.guitartabs.cc/tabs/m/modest_mouse/teeth_like_gods_shoeshine_tab.html ]
Keep Playing Louder And Faster
E |--------------|
B |--------------|
G |4-------------|
D |4-x6-7----5---|
A |2----7-x6-5-x6|
E |-----5----3---|

E |------------|
B |------------|
G |11-9-7-6-7--|
D |-----------7|
A |------------|
E |------------|

E |----------------------------|
B |----------------------------|
G |11-9-7-6-7-----6-7p6---7-6p6|
D |-----------7-7-------7------|
A |----------------------------|
E |----------------------------|

E |--------------------------------------------------|
B |--------------------------------------------------|
G |11----11/12\11-11----11/12\11-11/12\11/12\11/12\11|
D |---x5-------------x4------------------------------|
A |9-----9/-10\9--9-----9-/10\9--9-/10\9-/10\9-/10\9-|
E |--------------------------------------------------|

E |---------|
B |---------|
G |11-9-7-12|
D |---------|
A |9--7-5-10|
E |---------|
Comments