Modest Mouse - Stars Are Projectors Chords & Tabs

 

Stars Are Projectors Chords & Tabs

Modest Mouse Chords & Tabs

Version: 1 Type: Tab 0 ratings
1 star 2 stars 3 stars 4 stars 5 stars
comments

Stars Are Projectors Tab

   
Tabbed By: The Legendary Zach McDargh
E-mail: applemaster62@aol.com

Standard Tuning
Intro
e|----------------|--------------------|
B|----------------|--------------------|
G|----------------|--------------------|
D|---4-5p4-5p4-2--|---4-5p4-5p4-2------|
A|-2-------------2|-2-------------2---2|
E|----------------|-----------------3--|

0:22
e|-----------------------|
B|-----------------------|
G|---------2----------2--|
D|---4-5-4------4-5-4---5|
A|-2----------2----------|
E|-----------------------|

1:37
e|------------------------------------|
B|------------------------------------|
G|------------------------------------|
D|---------------------------9----9---|
A|-----7-10-7---------7-10-7---10---10|
E|-5/7--------10--5/7-----------------|
[ Tab from: http://www.guitartabs.cc/tabs/m/modest_mouse/stars_are_projectors_tab.html ]
2:12 (I really don't know, I'm completely guessing on this one, in fact it's probably wrong)
e|-------------------------|
B|-------------------------|
G|-------------------------|
D|-9-9-9-99-9/10-10-10-1010|
A|-x-x-x-xx-x/x--x--x--x-x-|
E|-7-7-7-77-7/8--8--8--8-8-|

2:58 (It's a small part, but my other tabs suck so I figure this should be quality)
e|---------------------|
B|---------------------|
G|---------------------|
D|------------9--------|
A|-----7-10-7---9-10-12|
E|-5/7-----------------|

3:02
e|------------------------------|
B|------------------------------|
G|------------------------------|
D|-------------------------12---|
A|-5/7-10-7/10-12-10/12-14----14|
E|------------------------------|

3:34
e|----------------|
B|----------------|
G|----------------|
D|-99-------------|
A|----99-1010-1212|
E|----------------|

4:11
e|----------------------------------|
B|----------------------------------|
G|----------------------1212-1111-99|
D|-99--------------1212-------------|
A|----99-1010-1212------------------|
E|----------------------------------|
At 4:41 this is played exactly the same but each note is played once. At around 6:00 it 
wierd and hard to understand, so I didn't tab that. I don't think it really matters.
Comments