Modest Mouse - Sleepwalking Chords & Tabs

 

Sleepwalking Chords & Tabs

Modest Mouse Chords & Tabs

Version: 3 Type: Tab 0 ratings
1 star 2 stars 3 stars 4 stars 5 stars
comments

Sleepwalking Tab

   
Sleepwalking By: Modest Mouse
Tab By: Song Wi - song@txgsm.com

Hey, this is my first attempt at writing tabs so cut me some slack.  These are
basically the positions and chords.  Listen to the song to get the rhythm.

E --------------------------------------------------------------------------
B 13--8--6--8---9--8--6--13--8--6--8--9--8--6--8-----8----------------------
G 12--9--7--9--10--9--7--12--9--7--9--10-9--7--9--9-----9--5--5--5--9--9--9-
D --------------------------------------------------------------------------
A --------------------------------------------------------------------------
E --------------------------------------------------------------------------

E ---------------------------------------------------------------------------
B ---------------------------------------------------------------------------
G 9--5--5--5--7--5--4--4--4--5--4--12--12--12--12\-10--10--10\-9--9--9--10--9
D ---------------------------------------------------------------------------
A ---------------------------------------------------------------------------
E ---------------------------------------------------------------------------
[ Tab from: http://www.guitartabs.cc/tabs/m/modest_mouse/sleepwalking_tab_ver_3.html ]
E ---------------------------------------------------------------------------
B ---------------------------------------------------------------------------
G 5--5--5--5--7--5--4--4--4--4--5--4--12-12-12\-10-10-10\-9--9--9--10-9------
D ---------------------------------------------------------------------------
A ---------------------------------------------------------------------------
E ---------------------------------------------------------------------------


This part is continuous...(repeat)

   C                            Am

E ---------------------------------------------------------------------------
B ----------1-------------------1--------------------------------------------
G ------0------0------------2-----2--------------1------------------4--------
D ---2------------2------2-----------2--------3-----3-----------5-----5------
A 3-------------------0---------------------3-----------3-----5-----------5--
E ----------------------------------------1------------------3---------------

This part is also continuous...(pick each note & repeat)

There are other parts that you can play together but this should get you
started.  Both of these parts can be played together if you have two guitarists.

Good luck!  Modest Mouse Rules!  Can't wait to see them again.
Comments