Modest Mouse - Perfect Disguise Chords & Tabs

 

Perfect Disguise Chords & Tabs

Modest Mouse Chords & Tabs

Version: 1 Type: Tab 0 ratings
1 star 2 stars 3 stars 4 stars 5 stars
comments

Perfect Disguise Tab

tabbed by andy

intro

E|-|-0-----0------------|-|
B|-|---1h2---2----------|-|
G|-|-----------4--2~----|-|
D|-|--------------------|-|                                h = hammer on
A|-|--------------------|-|   x2                           ~ = vibrato
e|-|--------------------|-|                                / = slide up
                                                            = slide down
E|-|---------------------------------------|-|		
B|-|--20---0--20---0---------0------0------|-|
G|-|------2-------2---41-----2--------2---|-|
D|-|---------------------------------------|-|
A|-|-2---2---2---2----52-0------0---------|-|
e|-|---------------------------------------|-|

E|-|---------------------------------------|-|
B|-|--20---0--20---0----------------0------|-|
G|-|------2-------2---41--------------2-- |-|
D|-|---------------------------------------|-|
A|-|-2---2---2---2----52-0----------------|-|
e|-|---------------------------------------|-|
[ Tab from: http://www.guitartabs.cc/tabs/m/modest_mouse/perfect_disguise_tab.html ]
E|-|---------------------------------------|-|
B|-|--20---0--20---0-----------------------|-|
G|-|------2-------2---41----------------- |-|
D|-|---------------------------------------|-|
A|-|-2---2---2---2----52-0----------------|-|
e|-|---------------------------------------|-|

E|-|-0-----0------------|-|
B|-|---1h2---2----------|-|
G|-|-----------4----2---|-|
D|-|-----------2/4------|-|                               
A|-|-0--------------0---|-|                              
e|-|--------------------|-|

E|-|-0-----0------------|-|
B|-|---1h2---2----------|-|
G|-|-----------4----2---|-|
D|-|-----------4--------|-|                               
A|-|-0--------------0---|-|                              
e|-|--------------------|-|

E|-|---------------------------------------|-|
B|-|--20---0--20---0---------0------0------|-|
G|-|------2-------2---41-----2--------2-- |-|
D|-|---------------------------------------|-|
A|-|-2---2---2---2----52-0------0---------|-|
e|-|---------------------------------------|-|

E|-|---------------------------------------|-|
B|-|--20---0--20---0----------------0------|-|
G|-|------2-------2---41--------------2-- |-|
D|-|---------------------------------------|-|
A|-|-2---2---2---2----52-0----------------|-|
e|-|---------------------------------------|-|


the verse uses these two chords

E --2--  --0--
A --2--  --0--
D --4--  --2--
G --4--  --2-- 
B --2--  --0-- 
E --2--  --0--

Comments