Modest Mouse - Other Peoples Lives Chords & Tabs

 

Other Peoples Lives Chords & Tabs

Modest Mouse Chords & Tabs

Version: 1 Type: Tab 0 ratings
1 star 2 stars 3 stars 4 stars 5 stars
comments

Other Peoples Lives Tab

   
Tabbed by:CMM
Email:

Tuning:Standard

(Intro)
e|---------------------------------------------------------------------------|
B|---------------------------------------------------------------------------|
G|-7-x-x-7-x-7\4-4-2\0-0--7-x-x-7-x-4/7--0h2-----7-x-x-7-x-7\4-4-2\0-0-------|
D|-x-x-x-x----------------x-x-x-x----------------x-x-x-x---------------------|
A|-5-x-x-5----------------5-x-x-5----------------5-x-x-5---------------------|
E|---------------------------------------------------------------------------|

e|---------------------------------------------------------------------------|
B|---------------------------------------------------------------------------|
G|-7-7-7-x-4/7--0h2---7-----------4------------------------------------------|
D|-x-x-x--------------x-----------x--------------7-------------5-------------|
A|-5-5-5--------------5-----------2--------------x-------------x-------------|
E|-----------------------------------------------5-------------3-------------|

The verse is played using the octaved notes of D B A and G
This variatons is added in often.
(Verse)
e|---------------------------------------------------------------------------|
B|---------------------------------------------------------------------------|
G|-7----------------------4--------------------------------------------------|
D|-x----------------------x----------------------7---------------------------|
A|-5-----7p5-7p5-7p5-7p5--2-----4p2-4p2-4p2-4p2--x---------------------------|
E|-----------------------------------------------5-----7p5-7p5-7p5-7p5-------|
[ Tab from: http://www.guitartabs.cc/tabs/m/modest_mouse/other_peoples_lives_tab.html ]
e|---------------------------------------------------------------------------|
B|---------------------------------------------------------------------------|
G|--------------7----------------------4-------------------------------------|
D|-5------------x----------------------x----------------------7--------------|
A|-x------------5-----7p5-7p5-7p5-7p5--2-----4-2-2-2-4-2-4-2--x--------------|
E|-3----------------------------------------------------------5----7p5-7p5---|

e|---------------------------------------------------------------------------|
B|---------------------------------------------------------------------------|
G|------------------------Bit-played-sometimes:------------------------------|
D|----------5-------------2-4-4-4-4-2-4-2-0----------------------------------|
A|----------x----------------------------------------------------------------|
E|-7p5-7p5--3----------------------------------------------------------------|

(Fill) (catchy one)      These Harmonics are continuously played at parts:
e|--5-3\2--------------------------------------------------------------------|
B|--------3-0----------------------------------------------------------------|
G|-----------------------------------------7+--------------------------------|
D|---------------------------------------------and-----7+--------------------|
A|---------------------------------------------------------------------------|
E|---------------------------------------------------------------------------|

The song is long and unstructured, and I'm not prepared to type out every little
fill and harmonic. If you think there's any bit I didn't cover, learn it yourself. Shouldn't be hard.



| /  slide up
| \  slide down
| h  hammer-on
| p  pull-off
| ~  vibrato
| +  harmonic
| x  Mute note
===============================================================================
Comments