Modest Mouse - One Chance Chords & Tabs

 

One Chance Chords & Tabs

Modest Mouse Chords & Tabs

Version: 3 Type: Tab 0 ratings
1 star 2 stars 3 stars 4 stars 5 stars
comments

One Chance Tab

   
Tabbed by: CMM
Email: no.

Tuning: Standard

Main Riff (Intro/Chorus)
e|---------------------------------------------------------------------------|
B|---------------------------------------------------------------------------|
G|-4/5p0--0--0-0-0-0---------------------------------------------------------|
D|-4/5p0--0--0-0-0-0--4-4-4\2--2-2-2-2-2h4-4-4p2-----------------------------|
A|--------------------5-5-5\3--3-3-3-3-3---3-3---2--2-2-2--2-2-2--2-2-2------|
E|-----------------------------------------------3--3-3-3--3-3-3--3-3-3------|

2nd Guitar (Intro/Chorus)
e|---------------------------------------------------------------------------|
B|-12-10----------10------12-10----10---12-10--------------------------------|
G|-------12----12----12---------12------------12--12~------------------------|
D|---------------------------------------------------------------------------|
A|---------------------------------------------------------------------------|
E|---------------------------------------------------------------------------|
[ Tab from: http://www.guitartabs.cc/tabs/m/modest_mouse/one_chance_tab_ver_3.html ]
Fills (played during verse)
e|---------------------------------------------------------------------------|
B|---------------------------------------8-----------------------------------|
G|-7--8-9---9-8-7------------------7-8-9---9-8-7-----------------------------|
D|--------9------------------------------------------------------------------|
A|---------------------------------------------------------------------------|
E|---------------------------------------------------------------------------|

Bridge
e|---------------------------------------------------------------------------|
B|---------------------------------------------------------------------------|
G|--4-4-4-4-4/5--5-----4-----4---4-------------------------------------------|
D|--4-4-4-4-4/5--5-----5-----5---5-------------------------------------------|
A|--2-2-2-2-2/3--3--5----5-5---5---------------------------------------------|
E|------------------3----3-3---3---------------------------------------------|

Note: The B5 chord is played many times more than I typed during the bridge,
also, listen to the song for the timing. I have done my best to indicate the
rhythm by leaving more spaces between notes to inicate a rest or whole note,
or what have you. Also, no more float on tabs please. The songs been flogged to death, let it rest already.


| /  slide up
| \  slide down
| h  hammer-on
| p  pull-off
| ~  vibrato
| +  harmonic
| x  Mute note
===============================================================================
Comments