Modest Mouse - Ohio Chords & Tabs

 

Ohio Chords & Tabs

Modest Mouse Chords & Tabs

Version: 2 Type: Tab 0 ratings
1 star 2 stars 3 stars 4 stars 5 stars
comments

Ohio Tab

Tabbed By:CMM
email:colin_michael_muppet@hotmail.com

Tuning:Standard

(Intro/Verse/Chorus)
e|-----------------------------------|
B|-----------7-(0)-------------------|
G|--------------x------------7-(0)---|
D|--------------x--------------------|
A|-7--7--7----------5--5--5----------|
E|-----------------------------------|
   PM.....          PM.....

(Fill)
e|----------------|
B|-/5--3-3--------|
G|-----------5-4~-|
D|----------------|
A|----------------|
E|----------------|

(Interlude)
e|---------------------------------------------------------------------|
B|---------------------------------------------------------------------|
G|--------5-----5----------4-----4-------------------------------------|
D|--------5-----5----------4-----4----------5-----5----------7-----5---|
A|--7--7-----7-------5--5-----5-------------5-----5----------7-----5---|
E|------------------------------------7--7-----7-------5--5------------|
[ Tab from: http://www.guitartabs.cc/tabs/m/modest_mouse/ohio_tab_ver_2.html ]
(Fill)
e|------------------|
B|------------------|
G|--7\5-5\4-4\2p0---|
D|------------------|
A|------------------|
E|------------------|

(Interlude Two)
e|-------------------------------------------------------------------------|
B|-------------------------------------------------------------------------|
G|-------------------------------------------------------------------------|
D|-------10--------10---------10-------9--------9-------9-----5-----5---5--|
A|-10-10----10--10-----10-10-----------------------------------------------|
E|-------------------------------10-10---10--10---10-10---7-7---7-7---7----|

e|------------------|
B|------------------|
G|------------------|
D|-----7---7-----7--|
A|------------------|
E|-8-8---8---8-8----|

(Outro Bends)
e|-----------------------------|
B|-7b-7b-7b-7b-----------------|
G|--------------7b-7b-7b-7b----|
D|-----------------------------|
A|-----------------------------|
E|-----------------------------|

NOTE: First guitar Outro is the same as the Intro/Verse/Chorus except instead
of playing the second D a harmonic from the 5th fret is played and bent.
Comments