Modest Mouse - Ohio Chords & Tabs

 

Ohio Chords & Tabs

Modest Mouse Chords & Tabs

Version: 1 Type: Tab 0 ratings
1 star 2 stars 3 stars 4 stars 5 stars
comments

Ohio Tab

RIFF 1
e|------------------------------------|
B|--0-0-7b-0-0-0-----0-0-7b-0-0-0-----|
G|---------------5-4--------------5-4-|
D|------------------------------------|
A|------------------------------------|
E|------------------------------------|
RIFF 2
e|------------------------------|
B|------------------------------|
G|------------------------------|
D|----5-4-------4---5-4-------4-|
A|--7-----7-5-7---7-----7-5-7---|
E|------------------------------|
RIFF 3
e|-------------------------------------|
B|-------------------------------------|
G|------5-5------4-4------2-2------2-2-|
D|------5-5------5-5------1-1------0-0-|
A|--3-3-3-3--2-2-2-2--2-2-2-2--3-3-3-3-|
E|-------------------------------------|
RIFF 4
e|--------------------------------------------------------------------------|
B|--------------------------------------------------------------------------|
G|--------------------------------------------------------------------------|
D|--5-7-7-7-7-7-7-7-7-0-5-5-5-5-5-5-5-5---------------------2-2-2-2-2-2-2-2-|
A|--------------------------------------3-3-3-3-3-3-3-3-3-------------------|
E|--------------------------------------------------------3-----------------|
[ Tab from: http://www.guitartabs.cc/tabs/m/modest_mouse/ohio_tab.html ]
Comments