Modest Mouse - Ocean Breathes Salty Chords & Tabs

 

Ocean Breathes Salty Chords & Tabs

Modest Mouse Chords & Tabs

Version: 1 Type: Tab 0 ratings
1 star 2 stars 3 stars 4 stars 5 stars
comments

Ocean Breathes Salty Tab

MODEST MOUSE
"Ocean Breathes Salty"
Tabbed By Garrett Gold (Yugugelizer)


INTRO 
Guitar 1
E |---------------------------------------------|
B |---------------------------------------------|
G |--------------------0---------------------4-0|
D |4-5-4-0-5-4-----5-----4-5-4-0-5-4-----5------|
A |------------0-3---0---------------0-3---3----|
E |---------------------------------------------|
[ Tab from: http://www.guitartabs.cc/tabs/m/modest_mouse/ocean_breathes_salty_tab.html ]
INTRO
Guitar 2
E |-------------------------------------------|
B |8-8---8---8---8-8-10-----------------------|
G |----9---9---9-------9-9-9\7-7-7-7-7-7-7/9\5|
D |-------------------------------------------|
A |-------------------------------------------|
E |-------------------------------------------|

BRIDGE Pt.1
E |-----------------------------------3-----3----|
B |---------------------------------3-----3------|
G |9-12-11-7-14-7-7-7/9-9-12-11-7----------------|
D |-------------------------------5-----4-----4/5|
A |----------------------------------------------|
E |----------------------------------------------|

BRIDGE Pt.2
E |----------------------------------------------|
B |----------------------------------------------|
G |9-12-11-7-14-7-7-7/9-9-12-11-7----------------|
D |-------------------------------5b-------------|
A |----------------------------------------------|
E |----------------------------------------------|
Comments