Modest Mouse - Never Ending Math Equation Chords & Tabs

 

Never Ending Math Equation Chords & Tabs

Modest Mouse Chords & Tabs

Version: 3 Type: Tab 0 ratings
1 star 2 stars 3 stars 4 stars 5 stars
comments

Never Ending Math Equation Tab

X----------------------|
X--1-1-1---3-3-3-3p0---|
X--2-2-2---------------|
X--2-2-2---------------|
X----------2-2-2-2-----|
X----------3-3-3-3-----|
[ Tab from: http://www.guitartabs.cc/tabs/m/modest_mouse/never_ending_math_equation_tab_ver_3.html ]
          Chorus
X--------------------------|
X--------------------------|
X----0------------0--------|
X--2---2 2p0---------4-----|
X--------------2-----------|
X------------3-------------|

           Ending
X-------------------------------|
X-------------------------------|
X-------------------------------|
X-2p0-2p0-2p0-2p0-2p0-2p0-2p0-8-|
X-------------------------------|
X-------------------------------|
Comments