Modest Mouse - Never Ending Math Equation Chords & Tabs

 

Never Ending Math Equation Chords & Tabs

Modest Mouse Chords & Tabs

Version: 1 Type: Tab

Never Ending Math Equation Tab

Slight PM
e------------------
b-----1-x-x-----0--
g-------x-x-------0
d-2-2-------0-0----
a------------------
e------------------


e------------------
b------------------
g---0-----------0--
d-2---2-------0---4
a-------2p0--------
e-----------3------
[ Tab from: http://www.guitartabs.cc/tabs/m/modest_mouse/never_ending_math_equation_tab.html ]
e-------------------------------------------------------
b-------------------------------------------------------
g-------------------------------------------------------
d-2-0-2-0-2-0-2-0-2-0-then strum all strings 3x rapidly.
a-------------------------------------------------------
e-------------------------------------------------------