Modest Mouse - Lonesome Crowded West Chords & Tabs

 

Lonesome Crowded West Chords & Tabs

Modest Mouse Chords & Tabs

Version: 1 Type: Tab 0 ratings
1 star 2 stars 3 stars 4 stars 5 stars
comments

Lonesome Crowded West Tab

   
Tabbed by: CMM
Email: colin_michael_muppet@hotmail.com

Teeth Like God's Shoeshine
Heart Cooks Brain
Convenient Parking
Lounge (Closing Time)
Jesus Christ was an Only Child
Doing the Cockroach
Cowboy Dan
Trailer Trash
Out of Gas
Long Distance Drunk
Shit Luck
Trucker's Atlas
Polar Opposites
Bankrupt on Selling
Styrofoam Boots

| /  slide up
| \  slide down
| h  hammer-on
| p  pull-off
| ~  vibrato
| +  harmonic
| x  Mute note
| P.M Palm mute
| r  Release to indicated pitch 
| b  Bend to indicated pitch (For bent harmonics I have not indicated where to
bend to, as you can't really indicate what fret it would sound like. Use your
ear on this one.)


Note several things please. As alot of these songs dont really have a structure,
I use the terms "Chorus" and "Verse" very loosely. Also I have not displayed the
amount of times to play certain parts, as you are looking at this tab, I'd assume
that you have heard at least one of these songs and should know how it sounds.

-----------------------Teeth Like God's Shoeshine----------------------------

(Intro riff one)
e|------------------------------------|
B|----------5-------------------------|
G|------------------------------------|
D|-4b5--4b5----x-x-5-x-x--------------|
A|-------------x-x-5-x-x--5p0--0------|
E|-------------x-x-3-x-x--------------|

(Intro riff two)
e|-------------------------------|
B|----------5--------------------|
G|-------------------------------|
D|-4b5--4b5----x-x---------------|
A|-------------x-x---------------|
E|-------------x-x--2--3--4--5---|

(Harmonics in breakdown)
e|--------------------|
B|---5+------5+-------|
G|-------5+-----5+----|
D|--------------------|
A|--------------------|
E|--------------------|

(Transition)
e|---------------------------------------------------------|
B|-5--5--5--5-5--------------------------------------------|
G|-x--x--x--x-x----------------9--9--9--9-9----------------|
D|-4--4--4--4-4--5--5--5--5-5--x--x--x--x-x--7--7--7--7-7--|
A|---------------5--5--5--5-5--7--7--7--7-7--7--7--7--7-7--|
E|---------------3--3--3--3-3----------------5--5--5--5-5--|

(Transition 2)
e|------------------------------------------------|
B|-------5-------------5--------------------------|
G|------------------------------------------------|
D|-4--4-----x-x--4--4-----0----5--5--x--7--7--7-x-|
A|-----------------------------5--5--x--7--7--7-x-|
E|-----------------------------3--3--x--5--5--5-x-|
  P.M...      P.M......

(Harmonics)
e|-------------------------------|
B|-------------------------------|
G|-------------------------------|
D|-------------------------------|
A|----5+--5+-----5+--4+----------|
E|-7+---------5+--------3+--3+b--|

(Interlude part)
e|------------------------------|
B|------------------------------|
G|------------------------------|
D|------7------0-----5-----5/7--|
A|----5------4-----5-----5------|
E|--7------5-----3-----3--------|

(2nd half of song/Outro pt.1)
e|-----------------------------------------------------------------|
B|-----------------------------------------------------------------|
G|-----------------------------------------------------------------|
D|-9--9-9-9-9-9-9--7--7-7-7-7-7-7--5--5-5-5-5-5-5--5--5-5-5-5-5-5--|
A|-x--x-x-x-x-x-x--x--x-x-x-x-x-x--x--x-x-x-x-x-x--x--x-x-x-x-x-x--|
E|-7--7-7-7-7-7-7--5--5-5-5-5-5-5--3--3-3-3-3-3-3--3--3-3-3-3-3-3--|

(2nd half of song/Outro pt.2)
e|------------------------------------------------------------------------|
B|------------------------------------------------------------------------|
G|11--9--7--6--7--6----11--9--7--6--7----11--9--7--6--7--6----------------|
D|-x--x--x--x--x--x-----x--x--x--x--x-----x--x--x--x--x--x----------------|
A|-9--7--5--4--5--4-----9--7--5--4--5-----9--7--5--4--5--4--0-4-5p4--0-4--|
E|------------------------------------------------------------------------|

e|----------|
B|----------|
G|----------|
D|----------|
A|-5p4--0---|
E|----------|

(2nd half of song/Outro pt.3)
e|-------------------------------------------------------------------------|
B|-------------------------------------------------------------------------|
G|11--11-11-11-11--11--11-11-11-11--12\11--11-11-11-11--12\11--11-11-11-11-|
D|-x---x--x--x--x---x---x--x--x--x---x-x----x--x--x--x---x-x----x--x--x--x-|
A|-9---9--9--9--9---9---9--9--9--9--10\9----9--9--9--9--10\9----9--9--9--9-|
E|-------------------------------------------------------------------------|

(Outro Harmonics)
e|-------------------------------------|
B|-5+---------5+---------5+------------|
G|----7+-5+------7+-5+------7+-5+-5+b--|
D|-------------------------------------|
A|-------------------------------------|
E|-------------------------------------|

----------------------------Heart Cooks Brain--------------------------------

(Intro Harmonics)
e|--------------------------------------------------------|
B|--------------------------------------------------------|
G|-5+--5+--5+--5+---5+--5+--5+--5+---5+--5+--5+--5+---5+--|
D|--------------------------------------------------------|
A|--------------------------------------------------------|
E|--------------------------------------------------------|

e|--------------------------------------------------|
B|--------------------------------------------------|
G|----5+----5+----5+----5+------5+----5+----5+------|
D|-7+------------------------7+---------------------|
A|-------7+------------------------7+---------------|
E|-------------7+----7+------------------7+----7+---|

(Rhythm Guitar)
e|----------------------------------------------------|
B|----------------------------------------------------|
G|-7--7-7--x-x--9--9--9-x-x--x--9--9--x-x--9--7--7--5-|
D|-x--x-x--x-x--x--x--x-x-x--x--x--x--x-x--x--x--x--x-|
A|-5--5-5--x-x--7--7--7-x-x--x--7--7--x-x--7--5--5--3-|
E|----------------------------------------------------|

Note: No super definite pattern.

(Lead guitar Line)
e|------3--------5--------3--5-3------------3--------5-------------5--3----|
B|--3-5---5--3-5---3--3-5--------5-3-5--3-5---5--3-5---3--5-3-5-3-------5-3|
G|-------------------------------------------------------------------------|
D|-------------------------------------------------------------------------|
A|-------------------------------------------------------------------------|
E|-------------------------------------------------------------------------|

Note: Again, Im sorry, Incredible song, but too many variations and improvisations
to tab. This is again just the general idea.

----------------------------Convenient Parking-------------------------------

(Main Background bend)
e|-------------------|
B|-------------------|
G|-------------------|
D|--6b7r6b7r6b7r6----|
A|-------------------|
E|-------------------|

(Verse)
e|-----------------------------------------------------|
B|-----------------------------------------------------|
G|-----------------------------------------------------|
D|-----------------------------------------------------|
A|--------------7--7--7--7-7--9--9--9--9-9--7--9-7-9-7-|
E|-9--9--9--9-9----------------------------------------|

(Chorus)
e|--------------------------------------------|
B|--------------------------------------------|
G|----------------11--9-----------------------|
D|-11-11--x-x-x-x-11--9----7--7--x--11--11-11-|
A|-11-11--x-x-x-x--9--7----7--7--x--11--11-11-|
E|--9--9--x-x-x-x----------5--5--x---9---9--9-|

(Background fill)
e|-------|
B|-------|
G|-9-----|
D|---11--|
A|-------|
E|-------|

(Background fill)
e|-12+brbrb-|
B|----------|
G|----------|
D|----------|
A|----------|
E|----------|

(Outro)
e|--------------------------------------|
B|--------------------------------------|
G|--------------------------------------|
D|------7-------7-------7----7---7------|
A|-7--9----7--9----7--9---9----9---9----|
E|--------------------------------------|


-----------------------------Lounge (Closing Time)---------------------------

(Intro/Verse Chords)
e|--3----x--|
B|--3----1--|
G|--3----2--|
D|-------3--|
A|----------|
E|----------|
 
(Ending on)
e|--------------------------|
B|--------------------------|
G|--3--3--3-3--3---/5---5-3-|
D|--------------------------|
A|--------------------------|
E|--------------------------|

(Breakdown)
e|----------------------------------------|
B|----------------------------------------|
G|-----3---------3------------------------|
D|--5-----5---5-----5--3--3-3-3-3---------|
A|--------------------------------3-3-3-3-|
E|----------------------------------------|

(Transition)
e|--------------------------------|
B|--------------------------------|
G|-------------------------2--0---|
D|---3---------------3------------|
A|-5---5--3--5--5------5----------|
E|--------------------------------|

(Jam)
e|-------------------------------------------------------------------------|
B|-------------------------------------------------------------------------|
G|-------------------------------------------------------------------------|
D|-------------3--5--7--5--7--5--3--5--------------3--5--7--5--7--5--3--5--|
A|-5--5--5--5--------------------------3--3--3--3--------------------------|
E|-------------------------------------------------------------------------|

(Jam guitar 2)
e|-------------------------------------------------------------------------|
B|-------------------------------------------------------------------------|
G|-7----7----7----7----7----7----7----7----5----5----5----5----5----5----5-|
D|-x----x----x----x----x----x----x----x----x----x----x----x----x----x----x-|
A|-5----5----5----5----5----5----5----5----3----3----3----3----3----3----3-|
E|-------------------------------------------------------------------------|

e|----|
B|----|
G|-5--|
D|-x--|
A|-3--|
E|----|

(Jam Outro)
e|-------------------------------------------------------------------------|
B|-------------------------------------------------------------------------|
G|-7----7----7---11----7----7----7---11----5----5----5---11----5----5----5-|
D|-x----x----x----x----x----x----x----x----x----x----x----x----x----x----x-|
A|-5----5----5----9----5----5----5----9----3----3----3----9----3----3----3-|
E|-------------------------------------------------------------------------|

e|------|
B|------|
G|-11---|
D|--x---|
A|--9---|
E|------|

Note: The outro is just improvised quiet and sometimes palm muted versions of the jam.

-------------------Jesus Christ was an Only Child----------------------------

(Main riff)
e|---------7--7--x-x----------7--7--x-x----------7--7--x-x-----------------|
B|---------7--7--x-x----------7--7--x-x----------7--7--x-x--9-9-x-x-7-7-x-x|
G|-/8--7---7--7--x-x--/8--7---7--7--x-x--/8--7---7--7--x-x--9-9-x-x-7-7-x-x|
D|-/9--7---7--7--x-x--/9--7---7--7--x-x--/9--7---7--7--x-x--9-9-x-x-7-7-x-x|
A|-/9--7---7--7--x-x--/9--7---7--7--x-x--/9--7---7--7--x-x--7-7-x-x-5-5-x-x|
E|-/7--7---7--7--x-x--/7--7---7--7--x-x--/7--7---7--7--x-x-----------------|

(Alternated riff)
e|---------5--5--x-x----------5--5--x-x----------5--5--x-x-----------------|
B|---------5--5--x-x----------5--5--x-x----------5--5--x-x--7-7-x-x-5-5-x-x|
G|-/6--5---5--5--x-x--/6--5---5--5--x-x--/6--5---5--5--x-x--7-7-x-x-5-5-x-x|
D|-/7--5---5--5--x-x--/7--5---5--5--x-x--/7--5---5--5--x-x--7-7-x-x-5-5-x-x|
A|-/7--5---5--5--x-x--/7--5---5--5--x-x--/7--5---5--5--x-x--5-5-x-x-3-3-x-x|
E|-/5--5---5--5--x-x--/5--5---5--5--x-x--/5--5---5--5--x-x-----------------|

Note: when you hit the bar chords at the end, try not to emphasize on the higher notes.

--------------------------Doing the Cockroach---------------------------------

(Intro)
e|-------------------------------------------------------|
B|-------------------------------------------------------|
G|---7----7----------------------------------------------|
D|-9----9---9-7---7----7---------------------9--9--9--9--|
A|--------------9----9----9-7---7---7--------9--9--9--9--|
E|----------------------------9---9---9-7----7--7--7--7--|

(Verse)
e|-------------------------------------------------------------------|
B|-------------------------------------------------------------------|
G|-------8-------8-------8-------8-----------------------------------|
D|-9-9-9-9-9-9-9-9-9-9-9-9-9-9-9-9-7-7-7-7-7-7-7-7-5-5-5-5-5-5-5-5-5-|
A|-9-9-9-9-9-9-9-9-9-9-9-9-9-9-9-9-7-7-7-7-7-7-7-7-5-5-5-5-5-5-5-5-5-|
e|-7-7-7-7-7-7-7-7-7-7-7-7-7-7-7-7-5-5-5-5-5-5-5-5-3-3-3-3-3-3-3-3-3-|

(Verse 2)
e|-------------------------------------------------------------------------|
B|-------5+-------5+--------5+--------5+-----------------------------------|
G|-------------------------------------------------------------------------|
D|--------------------------------------------------4-------4--------------|
A|-----5--------5---------5---------5-----------4-----5-4-----5-4-------5-0|
E|-7-7------7-7-------7-7-------7-7---------5-5---5-------5-------5-3-3----|

(Interlude)
e|---------------------------------|
B|---------------------------------|
G|11--x-x--7--x--9--x--7--7--x-x---|
D|-x--x-x--x--x--x--x--x--x--x-x---|
A|-9--x-x--5--x--7--x--5--5--x-x---|
E|---------------------------------|

(Ending on)
e|------------------------|
B|------------------------|
G|--9--9--9-9--7--7--7-7--|
D|--x--x--x-x--x--x--x-x--|
A|--7--7--7-7--5--5--5-5--|
E|------------------------|

(Outro)
e|--------------------------------------------------|
B|-------5+b---------5+b-------------------5+b------|
G|------------------------------7+b-----------------|
D|--------------------------------------------------|
A|-----5-----------5----------5----------5----------|
E|-7-7---------7-7--------7-7--------7-7------------|

------------------------------Cowboy Dan-------------------------------------

(Main riff)
e|--------------------------------------------------|
B|--------------------------------------------------|
G|--------------------------------------------------|
D|---11-12-----11-12----------11-12-----11-12-------|
A|-9--------12-------12-11--9--------12-------12-11-|
E|--------------------------------------------------|

(Background Harmonics)
e|-------------|
B|-------------|
G|-7+b---------|
D|-7+b----7+b--|
A|--------7+b--|
E|-------------|

(Chorus)
e|-----------------------------------------------------------------------|
B|-----------------------------------------------------------------------|
G|11--11--11---11-11-11-11-----------------------------------------------|
D|-x---x---x----x--x--x--x--11--11---11-11--11-12-11-12-11\9--9--9--x-x--|
A|-9---9---9----9--9--9--9---x---x----x--x---x--x--x--x--x-x--x--x--x-x--|
E|---------------------------9---9----9--9---9-10--9-10--9\7--7--7--x-x--|

(Interlude 1)
e|-----------------------------------------------------------------------|
B|-----------------------------------------------------------------------|
G|-----------------------------------------------------------------------|
D|--------11----11------------------------11---------------------11------|
A|-9--12-----12----12--------11----11--------12--9----9----9--------12---|
E|---------------------9--12----12----12-----------10---10---10----------|

e|--------------------|
B|--------------------|
G|--------------------|
D|--------------------|
A|-9------------------|
E|---10-9-9\7-9-10-12-|

(Interlude 2)
e|------------------------------------------|
B|------------------------------------------|
G|-11-12--14--14-12\11--9\7-7-9--11-9-7-7---|
D|------------------------------------------|
A|------------------------------------------|
E|------------------------------------------|

Note:Outro is pretty much an improvised chorus with no real structure.
[ Tab from: http://www.guitartabs.cc/tabs/m/modest_mouse/lonesome_crowded_west_tab.html ]
----------------------------Trailer Trash------------------------------------

(Intro)
e|-------------------------------------------------------------------------|
B|-------------------------------------0--0--------------------------------|
G|-------------------------------------x--x-------------5--5--5-5--5--5-5-5|
D|--9---9---9--9---9---9--9--9\4--4--4-4--4--4--4-4-4-x-5--5--5-5--5--5-5-5|
A|-10--10--10-10--10--10-10-10\5--5--5-5--5--5--5-5-5-x-3--3--3-3--3--3-3-3|
E|-------------------------------------------------------------------------|

e|---------------------------|
B|---0--0--0-0--0--0-0-0-0---|
G|5--x--x--x-x--x--x-x-x-x---|
D|5--2--2--2-2--2--2-2-2-2---|
A|3--3--3--3-3--3--3-3-3-3---|
E|---------------------------|

(1st Guitar)
e|-------------------------------------------------------------------------|
B|-------------------------------------------------------------------------|
G|----------------------------------------------------5--5--5-5--5--5-5-5-5|
D|--9---9---9--9---9---9--9--9\4--4--4-4--4--4-4-4-4--5--5--5-5--5--5-5-5-5|
A|-10--10--10-10--10--10-10-10\5--5--5-5--5--5-5-5-5--3--3--3-3--3--3-3-3-3|
E|-------------------------------------------------------------------------|

e|---------------------------|
B|-0--0--0-0--0--0-0-0-0-----|
G|-x--x--x-x--x--x-x-x-x-----|
D|-2--2--2-2--2--2-2-2-2-----|
A|-3--3--3-3--3--3-3-3-3-----|
E|---------------------------|

(2nd Guitar)
e|----15--------15--------15-----10--------10--------10-----8------8------|
B|-------12--------12---------------10--------10--------------8------8----|
G|-12-------12--------12-----11--------11--------11------9------9------9--|
D|------------------------------------------------------------------------|
A|------------------------------------------------------------------------|
E|------------------------------------------------------------------------|

e|---8-----8------8------8---|
B|-----------8------8--------|
G|------9------9------9------|
D|---------------------------|
A|---------------------------|
E|---------------------------|

(1st Guitar Chorus)
e|-------------------------------------------------------------------------|
B|-------------------------------------------------------------------------|
G|-------------------------------------------------------------------------|
D|--9--9--9--9--9--9--9--9-4-4-4-4-4-4-4-4-5-5-5-5-5-5-5-5-2-2-2-2-2-2-2-2-|
A|-10-10-10-10-10-10-10-10-5-5-5-5-5-5-5-5-3-3-3-3-3-3-3-3-3-3-3-3-3-3-3-3-|
E|-------------------------------------------------------------------------|
   P.M.....................................................................

(2nd Guitar Chorus)
e|-------------------------------------------------------------------------|
B|-------------------------------------------------------------------------|
G|-----------7+---------------------------5--4--5--4--5--4--5--4--5--4--5-4|
D|-7+-------------7+-------------------------------------------------------|
A|------7+-----------------------------------------------------------------|
E|-------------------------------------------------------------------------|

(1st Guitar Jam)
e|---------------------------------------------------------------------|
B|---------------------------------------------------------------------|
G|--------------------------------------5--------5--------5--------5---|
D|--9--------9--------4--------4--------5--------5--------5--------5---|
A|-10-------10--------5--------5--------3--------3--------3--------3---|
E|---------------------------------------------------------------------|

NOTE: Bend the shit out of these chords with a whammy.

(2nd Guitar Jam)
e|-------------------------------------------------------------------------|
B|-------------------------------------------------------------------------|
G|-7-5\4-5p4----7-5\4-5p4----7-5\4-5p4---5p4---5p4----7-5\4-5p4---7-5\4-5p4|
D|-----------5------------5------------5-----5-----5------------5----------|
A|-------------------------------------------------------------------------|
E|-------------------------------------------------------------------------|

e|-------------------------------------------------------------------------|
B|-------------------------------------------------------------------------|
G|---7-5\4-5p4-5p4-5p4-5p4-5p4-5p4--7-5\4-5p4----7-5\4-5p4----7-5\4-5p4----|
D|5-------------------------------------------5------------5------------5--|
A|-------------------------------------------------------------------------|
E|-------------------------------------------------------------------------|

e|---------------------------------------------------------------------|
B|---------------------------------------------------------------------|
G|-7-5\4-5p4----7-5\4-5p4----7-5\4-5p4----7-5\4-5p4-5p4-5p4-5p4-5p4----|
D|-----------5------------5------------5----------------------------5--|
A|---------------------------------------------------------------------|
E|---------------------------------------------------------------------|

(1st Guitar Outro(pt.1))
e|-----------------------------------------------------------------------|
B|-----------------------------------------------------------------------|
G|--------------------------------------5-----5-----5--------------------|
D|--9--------9--------4--------4--------5-----5-----5--------------------|
A|-10-------10--------5--------5--------3-----3-----3--------------------|
E|-----------------------------------------------------------------------|
NOTE: Bend like the normal outro up until C5. Then Just play normally.

(2nd Guitar Outro(pt.2))
e|-----------------------------------------------------------------------|
B|-----------------------------------------------------------------------|
G|-----------------------------------------5+----5+b---5+b---------------|
D|-----------------------------------------------------------------------|
A|-----------------------------------------------------------------------|
E|-----------------------------------------------------------------------|

(Guitar parts above alligned to match song. Listen to song to learn how to bend harmonics.)


-------------------------------Out of Gas------------------------------------

(1st Guitar)
e|-----------------------------------------|
B|-----------------------------------------|
G|-----------------------------------------|
D|-----7-------7---------------------------|
A|-8-8---8p7-7---7\5-5-5h7--5\3-3-3-0-0----|
E|-----------------------------------------|

(2nd Guitar)
e|-x-x--x-x--|
B|-x-x--x-x--|
G|-x-x--x-x--|
D|-x-x--x-x--|
A|-x-x--x-x--|
E|-x-x--x-x--|



---------------------------Long Distance Drunk-------------------------------

(Whole thing)
e|-----------------------------------------------------|
B|-----------------------------------------------------|
G|-4--4--4--4--4--4--4/7--7--4--4--4--x--4--4--4--x----|
D|-4--4--4--4--4--4--4/7--7--4--4--4--x--4--4--4--x----|
A|-2--2--2--2--2--2--2/5--5--2--2--2--x--2--2--2--x----|
E|-----------------------------------------------------|
  P.M..............................................

---------------------------------Shit Luck------------------------------------

(Main Riff)
e|-----------------------------------|
B|-----------------------------------|
G|-----------------------------------|
D|---------7h9--------------7h9------|
A|-----7h9-----7h9------7h9-----7h9--|
E|-7h9--------------7h9--------------|

(Ending on)
e|------------|
B|------------|
G|------------|
D|------------|
A|------------|
E|-7--7--7--7-|

(Harmonics part)
e|--------------------------------------------------|
B|---------------------------5+b---5+b---5+b---5+b--|
G|---5+b---5+b---5+b---5+b--------------------------|
D|--------------------------------------------------|
A|-4-----4-----4-----4------------------------------|
E|-------------------------5-----5-----5-----5------|


-----------------------------Trucker's Atlas----------------------------------

(Intro)
e|--------------------------------------------------------|
B|--------------------------------------4-----0-----------|
G|--------------------------------------------------------|
D|--------------------------------------------------------|
A|--------------------------------4--4-----4-----4--4--4--|
E|-12\---4--4--4--4/---0-0--0--0--------------------------|

(Main riff)
e|------------------------------------------------|
B|-------0----4------------------4----0-----------|
G|------------------------------------------------|
D|------------------------------------------------|
A|-------------------------4--4----4-----4/---\4--|
E|-4--4-----4----4/---\0--------------------------|

(Chorus Intro)
e|---------------------------------------------------------|
B|---------------------------------------------------------|
G|-9--9--9--9-9--9--9--9--9-9--6--6--6--6-6--4--4--4--4-4--|
D|-x--x--x--x-x--x--x--x--x-x--x--x--x--x-x--x--x--x--x-x--|
A|-7--7--7--7-7--7--7--7--7-7--4--4--4--4-4--2--2--2--2-2--|
E|---------------------------------------------------------|

(Chorus)
e|---------------------------------------------------------------------|
B|-9-9-10-9-9-9-10-9-9-9-10-9-9-9-10-9-6-6-7-6-6-6-7-6-4-4-5-4-4-4-5-4-|
G|-9-9--9-9-9-9--9-9-9-9--9-9-9-9--9-9-6-6-6-6-6-6-6-6-4-4-4-4-4-4-4-4-|
D|---------------------------------------------------------------------|
A|---------------------------------------------------------------------|
E|---------------------------------------------------------------------|

(Interlude Intro)
e|-2--------2-------0-------0--0---|
B|---4---4----4---4---4---4------4-|
G|-----4--------4-------4----------|
D|---------------------------------|
A|---------------------------------|
E|---------------------------------|

(Interlude 1)
e|-2p0---2p0---2p0---2p0---2p0---2p0------------|
B|-----4-----------4-----------4--------2-4-2-0-|
G|-----------4-----------4-----------4----------|
D|----------------------------------------------|
A|----------------------------------------------|
E|----------------------------------------------|

(Interlude 2)
e|-------------------------------------|
B|-------------------------------------|
G|-------------------------------------|
D|-------------------------------------|
A|-2b3r------------------2b3r----------|
E|--------2-x-2-x-2-2-0--------2-0-2-0-|

(Outro)
e|------------|
B|------------|
G|------------|
D|-9-11--4--6-|
A|-x--x--x--x-|
E|-7--9--2--4-|
  P.M.........

Note: Outro is just a bunch of variations on that.
 
---------------------------Polar Opposites-----------------------------------

(Intro/Verse)
e|----------------------------------------------|
B|----------------------------------------------|
G|----------------------------------------------|
D|-4--4--x--9---9--9--x-----------7---7--7--x---|
A|-5--5--x--7---7--7--x--2--2--x--5---5--5--x---|
E|-----------------------3--3--x----------------|

(Chorus)
e|-----------------------------------------------|
B|-----------------------------------------------|
G|-----------------------------------------------|
D|-4--4--x--9---9--9--x-11--11--x--7---7--7--x---|
A|-5--5--x--7---7--7--x--9---9--x--5---5--5--x---|
E|-----------------------------------------------|

(Repeated bend at end of first chorus)
e|----------|
B|----------|
G|-11b12r11-|
D|----------|
A|----------|
E|----------|

(Interlude)
e|-------------------------------------------------------------------------|
B|-------------------------------------------------------------------------|
G|-9-9-11--9-9-11--9-9-11-9-9-7~--7-7-7-7-7----7-------7-------------------|
D|-------------------------------------------9---9-9-9---9-9--9-7-5----5---|
A|------------------------------------------------------------------7----7-|
E|-------------------------------------------------------------------------|

e|-----------|
B|-----------|
G|-----------|
D|-----------|
A|-5--5~-----|
E|-----------|

(Jam pt.1)
e|-------------------------------------------------------------------------|
B|-------------------------------------------------------------------------|
G|-------------------------------------------------------------------------|
D|-------------------------------------------------------------------------|
A|-7--7--7--7----7--7/9----------------------5--5--5--5----5--5/7--9\7--7\5|
E|-----------------------7\5-5--5----5--5/7--------------------------------|

e|----------|
B|----------|
G|----------|
D|----------|
A|-5/7--7---|
E|----------|

(Jam pt.2)
e|-------------------------------------------------------------------------|
B|-------------------------------------------------------------------------|
G|-9--9--9--9----9--9/11---------------------7--7--7--7----7--7/9-11\9--9\7|
D|-x--x--x--x----x--x-x--9\7-7--7----7--7/9--x--x--x--x----x--x-x--x-x--x-x|
A|-7--7--7--7----7--7/9--x-x-x--x----x--x-x--5--5--5--5----5--5/7--9\7--7\5|
E|-----------------------7\5-5--5----5--5/7--------------------------------|

e|----------|
B|----------|
G|-7/9--9---|
D|-x-x--x---|
A|-5/7--7---|
E|----------|

---------------------------Bankrupt on Selling--------------------------------

(Chord Progression)
e|-------------------------------0--0--0--0---|
B|-1--3--1--0--1--1--3--1--0--1--0--3--0--1---|
G|-0--0--0--0--0--2--2--2--2--2--0--0--0--2---|
D|-2--2--2--2--2--2--2--2--2--2--2--2--2--3---|
A|-3--3--3--3--3--0--0--0--0--0--2--2--2------|
E|-------------------------------0--0--0------|
  
(Electric Guitar)

(Played over top of chords)
e|-0------------0-------------0--------0-|
B|-1------------1-------------0--------3-|
G|-0------------2-------------0--------0-|
D|---------------------------------------|
A|---------------------------------------|
E|---------------------------------------|

(Frequent fill/Ending)
e|-3-1-0--------------------------------0-------------|
B|-------1--------------------------1p0---1--0--1-----|
G|----------------------------0h2-2-------------------|
D|----------------------------------------------------|
A|----------------------------------------------------|
E|----------------------------------------------------|

-----------------------------Styrofoam Boots---------------------------------

(Intro)
e|---3----3----------------3----3--------------3----3----------------------|
B|---3----3----------------3----3--------------3----3----------------------|
G|----------------2p0-0-------------2p0-0-------------------2p0-0---2p0-0--|
D|------------2p0-------------------------0-------------2p0----------------|
A|-------------------------------------------------------------------------|
E|-3----3---3------------3----3--------------3----3---3--------------------|

e|-------------------3----3----------------3----3-----------------3----3---|
B|-------------------3----3----------------3----3-----------------3----3---|
G|----------0-2-0-----------------2p0-0------------2p0h2p0-----------------|
D|--2p0h2p0-------------------2p0--------------------------2p0-------------|
A|-------------------------------------------------------------------------|
E|-----------------3----3---3------------3----3-----------------3----3---3-|

e|-------------------------------------|
B|-------------------------------------|
G|-----2p0-0--2p0-0---------0-2-0------|
D|-2p0--------------2p0h2p0------------|
A|-------------------------------------|
E|-------------------------------------|

(Verse)
e|---3---3---3---3--|
B|---3---3---3---3--|
G|---0---0---0---0--|
D|------------------|
A|------------------|
E|-3---3---3---3----|

("Chorus" Chords)
e|-x---3-|
B|-3---3-|
G|-0---0-|
D|-2---0-|
A|-2---2-|
E|-0---3-|

Note: The outro is your standard G chord.

                                  The End
Comments