Modest Mouse - Karmas Payment Chords & Tabs

 

Karmas Payment Chords & Tabs

Modest Mouse Chords & Tabs

Version: 1 Type: Bass Tab

Karmas Payment Bass Tab

Intro

G|---------------|
D|---------------|          x7
A|---------3-----|
E|-5---3-------1-|

G|---------------------------------|
D|---------------------------------|
A|-----------------3-3-3-3---------|       x4
E|-5-5-5-5-3-3-3-3---------1-1-1-1-|

G|------------------------|
D|------------------------|
A|-------------3-3/5------|    x15 
E|-5-5/7-3-3/5------1-1/3-| 
[ Tab from: http://www.guitartabs.cc/tabs/m/modest_mouse/karmas_payment_btab.html ]
G|----------------------------|
D|----------------------------|
A|-------------3-3/5-6-5-6-5--|
E|-5-5/7-3-3/5----------------|

G|-9-9-9-9-7-7-7-7/5--5----12--12--14--14------|
D|---------------------------------------------|
A|---------------------------------------------|   x2
E|---------------------------------------------|

G|-9-9-9--7-7-7--5---12--12--14--14-|
D|----------------------------------|
A|-----------------4----------------|  x2
E|------5-------3-------------------|

G|---------------|
D|---------------|
A|---------3-----|
E|-5---3-------1-|