Modest Mouse - Interstate 8 Chords & Tabs

 

Interstate 8 Chords & Tabs

Modest Mouse Chords & Tabs

Version: 1 Type: Bass Tab 0 ratings
1 star 2 stars 3 stars 4 stars 5 stars
comments

Interstate 8 Bass Tab

   
Modest Mouse - Interstate 8
Tabbed by: Eric Bird (toobadthisisfake@hotmail.com) on 10/10/04

/ = slide up
\ = slide down
b = bend

Riff 1:
G|--------------------|
D|--5--5--55/--000----|
A|--------------------|
E|--------------------|

Riff 2:
G|--------4-12/--------4-12/---------------------------------|
D|--5------------5---------------0----4-12/------0----4-12/--|
A|-----------------------------------------------------------|
E|-----------------------------------------------------------|
[ Tab from: http://www.guitartabs.cc/tabs/m/modest_mouse/interstate_8_btab.html ]
Riff 3:
G|-----------------------------------|
D|--5b----5b/--0----0\---------------|
A|-----------------------------------|
E|-----------------------------------|

Riff 4:
G|------------------------------------|
D|--555555555555555/0000000000000000\-|
A|------------------------------------|
E|------------------------------------|

Riff 5: (slides are quick)
G|----2-4/7-5-4-2-----2-4/7-5-4-2---------------------------------|
D|--5-------------5--5-------------5--0-2-4/7-4-2--0-2-4/7-4-2----|
A|----------------------------------------------------------------|
E|----------------------------------------------------------------|

Riff 6:
G|----2-4-5----2-4-5--------------------------|
D|--5--------5--------0-2-4-5--0-2-4-5--------|
A|--------------------------------------------|
E|--------------------------------------------|
Comments