Modest Mouse - I Came As A Rat Chords & Tabs

 

I Came As A Rat Chords & Tabs

Modest Mouse Chords & Tabs

Version: 4 Type: Tab 0 ratings
1 star 2 stars 3 stars 4 stars 5 stars
comments

I Came As A Rat Tab

I Came As A Rat
By Modest Mouse

Intro
------------------------------------------------|
------------------------------------------------|
------------------------------------------------|
-------7----------10--------5---------3---------|
-----7---7------10---10---5---5-----3---3-------|
---5---------8-----------3--------1-------------|

------------------------------------------------|
------------------------------------------------|
------------------------------------------------|
-------7----------10--------5---------3---------|
-----7---7------10---10---5---5-----3---3-------|
---5---------8-----------3--------1-------------|

------------------------------------------------|
------------------------------------------------|
------------------------------------------------|
-------7----------10--------5---------3---------|
-----7---7------10---10---5---5-----3---3-------|
---5---------8-----------3--------1-------------|

------------------------------------------------|
------------------------------------------------|
------------------------------------------------|
-------7----------10--------5---------3---------|
-----7---7------10---10---5---5-----3---3-------|
---5---------8-----------3--------1-------------|

------------------------------------------------|
------------------------------------------------|
------------------------------------------------|
-------7----------10--------5---------3---------|
-----7---7------10---10---5---5-----3---3-------|
---5---------8-----------3--------1-------------|

------------------------------------------------|
------------------------------------------------|
------------------------------------------------|
-------7----------10--------5---------3---------|
-----7---7------10---10---5---5-----3---3-------|
---5---------8-----------3--------1-------------|
[ Tab from: http://www.guitartabs.cc/tabs/m/modest_mouse/i_came_as_a_rat_tab_ver_4.html ]
------------------------------------------------|
------------------------------------------------|
------------------------------------------------|
-------7----------10--------5---------3---------|
-----7---7------10---10---5---5-----3---3-------|
---5---------8-----------3--------1-------------|

---------------------------------------------------------------------------|
---------------------------------------------------------------------------|
---------------------------------------------------------------------------|
-------7----------10--------5---------3---/-/------------------------------|
-----7---7------10---10---5---5-----3---3-/-/------------------------------|
---5---------8-----------3--------1-------/-/------------------------------|
                                                                 ending
-----------------------------------------------------------------]---------|
-----------------------------------------------------------------]---------|
-----------------------------------------------------------------]---------|
7-/-/-7 ---------10-/-/-10----------5-/-/-5----------3-/-/-------]-3-/-/---|
7-/-/-7-*4 muted-10-/-/-10-*4 muted-5-/-/-3-*4 muted3-/-/*4muted-]-3-/-/---|
5-/-/-5-----------8-/-/--8----------3-/-/-3----------1-/-/]------]-1-/-/---|

-----------------------------------------|
-----------------------------------------|
-9--10---9--10---7--5--------------------|
----------------------9--10--9--10--7--5-|
-----------------------------------------|
-----------------------------------------|
                                                                  ending
-----------------------------------------------------------------]---------|
-----------------------------------------------------------------]---------|
-----------------------------------------------------------------]---------|
7-/-/-7 ---------10-/-/-10----------5-/-/-5----------3-/-/-------]-3-/-/---|
7-/-/-7-*4 muted-10-/-/-10-*4 muted-5-/-/-3-*4 muted3-/-/*4muted-]-3-/-/---|
5-/-/-5-----------8-/-/--8----------3-/-/-3----------1-/-/]------]-1-/-/---|


thats about all i know for now my email is apostleskateboards@hotmail.com if you'd like 
modify it at all thanks and the new modest mouse isnt that great gotta stick with the 
and ugly casanova peaccce. mike alliman
Comments