Modest Mouse - I Came As A Rat Chords & Tabs

 

I Came As A Rat Chords & Tabs

Modest Mouse Chords & Tabs

Version: 1 Type: Chords 0 ratings
1 star 2 stars 3 stars 4 stars 5 stars
comments

I Came As A Rat Chords

   
I Came As A Rat
by Modest Mouse
tabbed by Sierra Martinez

Sorry, haven't tabbed the 2nd guitar yet.

Repeat this for 7 bars.

  A     C     G     F
E----------------------------------

B----------------------------------

G---2-----5------------------------

D--2-----5------5-----3------------

A-0--0--3--3---5-----3-------------

E-------------3--3--1--1-----------

On the 8th bar switch to:

  A     C     G     F
E-------------------1--1-----------

B-------------------1--1-----------
[ Tab from: http://www.guitartabs.cc/tabs/m/modest_mouse/i_came_as_a_rat_crd.html ]
G---2-----5---------2--2-----------

D--2-----5------5---3--3-----------

A-0--0--3--3---5----3--3-----------

E-------------3--3--1--1-----------

Then this strumming for the rest of the song.

  A        C        G        F
  D  D    UD  D    UD  D    UD  D
E-0--0----33--3----33--3----11--1-----

B-2--2----55--5----33--3----11--1-----

G-2--2----55--5----44--4----22--2-----

D-2--2----55--5----55--5----33--3-----

A-0--0----33--3----55--5----33--3-----

E------------------33--3----11--1-----
Comments