Modest Mouse - Here It Comes Chords & Tabs

 

Here It Comes Chords & Tabs

Modest Mouse Chords & Tabs

Version: 2 Type: Tab 0 ratings
1 star 2 stars 3 stars 4 stars 5 stars
comments

Here It Comes Tab

   
Modest Mouse
Here it Comes

   
Part 1
e----|------------5/7-5---------------|------------5/7-5---------------|
B----|5h7p0---3---------5h7p0-7-------|5h7p0---3-----------5h7p0---3---|
G----|--------------------------------|--------------------------------|
D----|--------------------------------|--------------------------------|
A----|--------------------------------|--------------------------------|
E----|--------------------------------|--------------------------------|

[ Tab from: http://www.guitartabs.cc/tabs/m/modest_mouse/here_it_comes_tab_ver_2.html ]
Part 2
     |Dsus2   D       Bm              |Dsus    D       D5              |    
e----|0-------3-------2--------x------|0-------3-----------------------|
B----|2-------2-------3--------x------|2-------2-------5---------------|
G----|3-------3-------4--------x------|3-------3-------3---------------|
D----|--------0-------4--------x------|--------0-------0---------------|
A----|--------------------------------|--------------------------------|
E----|d---d-u-d---d-u-d---d-u--m------|d---d-u-d---d-u-d---------------|
Comments