Modest Mouse - Good Times Are Killing Me Chords & Tabs

 

Good Times Are Killing Me Chords & Tabs

Modest Mouse Chords & Tabs

Version: 1 Type: Tab 0 ratings
1 star 2 stars 3 stars 4 stars 5 stars
comments

Good Times Are Killing Me Tab

My First Tab, there are alot of instruments in This modest mouse song but here are 
ways to paly this song.


Standard tunning. Acoustic, or eletric. enjoy.


Use up and down strums and palm mutes. Riff 1
e|--------------------------------------------|
b|--33-x-333-333-3333---11-x-111-111-1111-----|
G|--33-x-333-333-3333---22-x-222-222-2222-----|
d|--33-x-333-333-3333-0-33-x-333-333-3333-0---|
a|--------------------------------------------|
E|-----_----_---_----------_----_---_---------|
     p.m   p.m p.m

or
[ Tab from: http://www.guitartabs.cc/tabs/m/modest_mouse/good_times_are_killing_me_tab.html ]
e|-----------------------------------------|
b|--77-x-777-777---22-222-222-2222---------|
g|--88-x-888-888---33-333-222-2222---------|
d|--88-x-888-888-0-33-333-333-3333---------|
a|-----------------------------------------|
E|-----_----_--------_---_---_-------------|
    p.m

1:45 into the song *bridge*
e|---------0-1------0-1-0-5-1-----------------|
b|-------1--------1---------------------------|
g|----2---------2-----------------------------|
d|--3---------3-------------------------------|
a|--------------------------------------------|
E|--------------------------------------------|

then back to Riff 1
Comments