Modest Mouse - Good News For People Who Love Bad News Chords & Tabs

 

Good News For People Who Love Bad News Chords & Tabs

Modest Mouse Chords & Tabs

Version: 2 Type: Tab 0 ratings
1 star 2 stars 3 stars 4 stars 5 stars
comments

Good News For People Who Love Bad News Tab

   
===============GOOD NEWS FOR PEOPLE WHO LOVE BAD NEWS=======================

Tabbed by: CMM
Email: colin_michael_muppet@hotmail.com

Horn Intro*
The World at Large
Float On
Ocean Breathes Salty
Dig Your Grave
Bury Me With It
Dance Hall
Bukowski
This Devil's Workday*
The View
Satin in a Coffin
Interlude (Milo)*
Blame it on the Tetons
Black Cadillacs
One Chance
The Good Times are Killing Me

* = Not tabbed. (Lack of Guitar)


| /  slide up
| \  slide down
| h  hammer-on
| p  pull-off
| ~  vibrato
| +  harmonic
| x  Mute note
| P.M Palm mute
| r  Release to indicated pitch 
| b  Bend to indicated pitch (For bent harmonics I have not indicated where to bend
to, as you can't really indicate what fret it would sound like. Use your ear on this
one.) Second attempt at this Album. Corrections made and parts added. Even parts
listed for person who plays them. Hopefully better this time.

---------------------------The World at Large-------------------------------

Tuning: Standard

Dann Gallucci:

(Entire Song)
e|-------------------------------------------------------------------|
B|-7-7-7-7-7-7-7/9--6-6-6-6-6-6-6-4-0-0-0-0-0-0-0-2------------------|
G|--------------------------------------------------3-3-3-3-3-3-3-3--|
D|-------------------------------------------------------------------|
A|-------------------------------------------------------------------|
E|-------------------------------------------------------------------|


Eric Judy:

(Entire Song)
e|-----6-------6-------6-------6-------6-------6-----------6------------|
B|---7---7---7---7---6---6---6---6---7---7---7---7-----6-----6---6------|
G|-6-------6-------6-------6-------8-------8---------6---6-----6--------|
D|-------------------------------------------------8--------------------|
A|----------------------------------------------------------------------|
E|----------------------------------------------------------------------|

--------------------------------Float On------------------------------------

Tuning: Standard

Dann Gallucci:
(Capo on 6th or bar 6th fret with finger)

(Intro/Verse/Outro)
e|0---0--0-0-0-0-0--0---0--0-0-0-0-0--0---0--0-0-0-0-0--0-----------0------|
B|0h1-1--1-1-1-1-1--1p0-0--0-0-0-0-0--0h1-1--1-1-1-1-1--1p0-----0-----0---0|
G|0---0--0-0-0-0-0--0---0--0-0-0-0-0--0h2-2--2-2-2-2-2--2p0---0---0-----00-|
D|----------------------------------------------------------2--------------|
A|-------------------------------------------------------------------------|
E|-------------------------------------------------------------------------|

(Chorus) 
e|-----0-------0-------0-------0-------0-------0-------------0----------|
B|---1---1---1---1---0---0---0---0---1---1---1---1-------0-----0---0----|
G|-0-------0-------0-------0-------2-------2-------2---0---0-----0------|
D|---------------------------------------------------2------------------|
A|----------------------------------------------------------------------|
E|----------------------------------------------------------------------|


Isaac Brock:

(Intro/PreChorus/Outro)
e|-------9----------------------------9----------------------------9-------|
B|----11----11--9--11-11-9-11------11----11--9--11-11-9-11------11----11--9|
G|-11---------------------------10---------------------------10------------|
D|-------------------------------------------------------------------------|
A|-------------------------------------------------------------------------|
E|-------------------------------------------------------------------------|

e|-----------------------------------------------|
B|-11-11-9-11-11-11-11-11-11-11-11-11-11-9\7-----|
G|-----------------------------------------------|
D|-----------------------------------------------|
A|-----------------------------------------------|
E|-----------------------------------------------|

(Harmonics Played)
e|-------|
B|-7+b---|
G|-------|
D|-------|
A|-------|
E|-------|

e|-7+b---|
B|-------|
G|-------|
D|-------|
A|-------|
E|-------|

------------------------Ocean Breathes Salty--------------------------------

Tuning: Standard

Isaac Brock:

(Intro)
e|---------------|
B|-12+b----------|
G|-------12+b----|
D|---------------|
A|---------------|
E|---------------|

(PreVerse)
e|-----------------------------------------------------|
B|-/8-8---8-8---8--8-8-10------------------------------|
G|------9-----9---9-------9----9-9\7-7--7-7-7-7/9-9\5--|
D|-----------------------------------------------------|
A|-----------------------------------------------------|
E|-----------------------------------------------------|

(Bridge)
e|------------------------------------------------------------------------|
B|------------------------------------------------------------------------|
G|-9-9-9-9-9--9-9-9-9-9--9-9-9-9-9/12--12--12--12-12-12-12-12--12-12-12-x-|
D|-x-x-x-x-x--x-x-x-x-x--x-x-x-x-x--x---x---x---x--x--x--x--x---x--x--x-x-|
A|-7-7-7-7-7--7-7-7-7-7--7-7-7-7-7/10--10--10--10-10-10-10-10--10-10-10-x-|
E|------------------------------------------------------------------------|

e|-----------------------------------------------------------------|
B|-----------------------------------------------------------------|
G|-----------------------------------------------------------------|
D|-9-9-9-9-9--9-9-9-9-9--9-9-9-9-9\5--5--5--5-5-5-5-5--5-5-5-x-----|
A|-x-x-x-x-x--x-x-x-x-x--x-x-x-x-x-x--x--x--x-x-x-x-x--x-x-x-x-----|
E|-7-7-7-7-7--7-7-7-7-7--7-7-7-7-7\3--3--3--3-3-3-3-3--3-3-3-x-----|


Dann Gallucci:

(Intro/verse)
e|-----------------------------------------------------------------|
B|-----------------------------------------------------------------|
G|-------------------------0-----------------------------4-0-------|
D|---5-4-0----5-4------5-------------5-4-0----5-4-----5------------|
A|-7--------------0--3---3---------7--------------0-3---3----------|
E|-----------------------------------------------------------------|

(Keyboards Variation One)
e|-------------------------------------|
B|-------------------------------------|
G|-9----9----7---7---5---5---5---7-----|
D|---10---10---9---9---7---7---7---9---|
A|-------------------------------------|
E|-------------------------------------|

(Keyboards Variation Two)
e|-------------------------------------|
B|-------------------------------------|
G|-9----9----7---7---5---5---5---5-----|
D|---10---10---9---9---7---7---7---7---|
A|-------------------------------------|
E|-------------------------------------|

(Bridge)
e|-------------------------------------------------------------------------|
B|------------10-----------------------------------------------------------|
G|-9-12-11--7-----7--7-7/9-9-12-11-7--------12------12---------9-12-11--7--|
D|---------------------------------------12------12------------------------|
A|------------------------------------10-------9-------9/10----------------|
E|-------------------------------------------------------------------------|

e|--------------------------------|
B|-10-----------------------------|
G|-----7--7-7/9-9-12-11-7---------|
D|------------------------5-------|
A|--------------------------------|
E|--------------------------------|


------------------------------Dig your Grave--------------------------------

Tuning: Standard

Isaac Brock:

(Riff One)
e|------------------|
B|-----------9------|
G|-11-10-8-8---8----|
D|------------------|
A|------------------|
E|------------------|

(Riff Two)
e|---------------------|
B|-----------------9---|
G|-11-10-8-8---------8-|
D|---------------------|
A|---------------------|
E|---------------------|

Note: Its a Ukulele, so notes are very staccato.

----------------------------Bury me with it---------------------------------

Tuning: Standard

Isaac Brock:

(Intro/Chorus) 
e|----------------------------------------|
B|-9--9----10--10----12--12----12--12-----|
G|-x--x-----x---x-----x---x-----x---x-----|
D|-x--x-----x---x-----x---x-----x---x-----|
A|-9--9----10--10----12--12----12--12-----|
E|----------------------------------------|

(Bridge)
e|-------------------------------------------------------------------------|
B|-------------------------------------------------------------------------|
G|-18-x-x-16-x-x-14-x-x-11-x-x-18-x-x-16-x-x-14-x-x-11-x-x-7-7-7-7-7-7-7-7-|
D|--x-x-x--x-x-x--x-x-x--x-x-x--x-x-x--x-x-x--x-x-x--x-x-x-x-x-x-x-x-x-x-x-|
A|-16-x-x-14-x-x-12-x-x--9-x-x-16-x-x-14-x-x-12-x-x--9-x-x-5-5-5-5-5-5-5-5-|
E|-------------------------------------------------------------------------|

e|------------------|
B|------------------|
G|-6-6-6-6-6-6-6-6--|
D|-x-x-x-x-x-x-x-x--|
A|-4-4-4-4-4-4-4-4--|
E|------------------|

(Fill)
e|-7-7-------------|
B|-----9p7---------|
G|----------9------|
D|-----------------|
A|-----------------|
E|-----------------|


Dann Gallucci:

(Chorus Keyboards One)
e|---------------------------12-------------------------|
B|-14-12----12--14-12-14-12-----14-12-14--15-14-15-14---|
G|-------14---------------------------------------------|
D|------------------------------------------------------|
A|------------------------------------------------------|
E|------------------------------------------------------|

(Chorus Keyboards Two)
e|---------------------------12-------------------------|
B|-14-12----12--14-12-14-12-----14-12-14--15-15-14-14---|
G|-------14---------------------------------------------|
D|------------------------------------------------------|
A|------------------------------------------------------|
E|------------------------------------------------------|

(Chorus Keyboards Three)
e|---------------------------12-------------------------|
B|-14-12----12--14-12-14-12-----14-12-14--12----12------|
G|-------14----------------------------------14----14-11|
D|------------------------------------------------------|
A|------------------------------------------------------|
E|------------------------------------------------------|

(Chorus Keyboards Four)
e|---------------------------12-------------------------|
B|-14-12----12--14-12-14-12-----14-12-14--15-14-12------|
G|-------14----------------------------------------14---|
D|------------------------------------------------------|
A|------------------------------------------------------|
E|------------------------------------------------------|

(Chorus Keyboards Five)
e|-------------------------------------------------------------------------|
B|-15-14-15-14-15-14-12-----15-14-15-14-15-14-12----15-14-15-14-15-14-12---|
G|----------------------14-----------------------14---------------------14-|
D|-------------------------------------------------------------------------|
A|-------------------------------------------------------------------------|
E|-------------------------------------------------------------------------|

e|--12--|
B|------|
G|------|
D|------|
A|------|
E|------|

(Guitar Chorus (After Bridge))
e|----------------------------------------------------|
B|----------------------------------------------------|
G|-11-11---11-12-12---12-14-14--12-14b15-14b15-12-11--|
D|----------------------------------------------------|
A|----------------------------------------------------|
E|----------------------------------------------------|

e|----------------------------------------|
B|----------------------------------------|
G|-11-11---11-12-12---12-14-14--12-14-14--|
D|----------------------------------------|
A|----------------------------------------|
E|----------------------------------------|

-----------------------------Dance Hall-------------------------------------

Tuning: Standard

Isaac Brock:

(Intro)
e|----------------------------------------------|
B|----------------------------------------------|
G|-12\11-----------12\11--12-----12\11----------|
D|-------12-----------------------------12------|
A|----------------------------------------------|
E|----------------------------------------------|

(Verse)
e|----------------------------------------------------------------------|
B|----------------------------------------------------------------------|
G|-x-9-x-9-x-9-x-9-x-7-x-7-x-7-x-7-x-11-x-11-x-11-x-11-x-9-x-9-x-9-x-9--|
D|-x-x-x-x-x-x-x-x-x-x-x-x-x-x-x-x-x--x-x--x-x--x-x--x-x-x-x-x-x-x-x-x--|
A|-x-7-x-7-x-7-x-7-x-5-x-5-x-5-x-5-x--9-x--9-x--9-x--9-x-7-x-7-x-7-x-7--|
E|----------------------------------------------------------------------|

(Chorusish part)
e|---------------------------------------------------------------|
B|-12-10--12-10-8----12-10--12-13-12-10----12-10--12-10-8-7------|
G|----------------9-----------------------------------------9----|
D|---------------------------------------------------------------|
A|---------------------------------------------------------------|
E|---------------------------------------------------------------|


Dann Gallucci:

(Fill)
e|---------------------------------|
B|--12-12-12-12-12p11--------------|
G|--------------------12-9---------|
D|---------------------------------|
A|---------------------------------|
E|---------------------------------|

(Last Verse)
e|-------------------------------------------|
B|-------------------------------------------|
G|-9-12-16----9-12-14----9-12-14----9-12-16--|
D|-x--x--x----x--x--x----x--x--x----x--x--x--|
A|-7-10-14----7-10-12----7-10-12----7-10-14--|
E|-------------------------------------------|

-----------------------------Bukowski---------------------------------------

Dann Gallucci:

(Fill One)
e|-8\------------------------------|
B|----8---8-9--8--8-9-8------------|
G|----------------------8-7--------|
D|---------------------------------|
A|---------------------------------|
E|---------------------------------|

(Fill Two)
e|-8\---------------|
B|----8--8h9p8------|
G|-------------8----|
D|------------------|
A|------------------|
E|------------------|

(Fill Three)
e|-8\--------------------------------------|
B|----8---8h9p8---8-----8-----8-----8-9\8--|
G|--------------8---8-7---7-5---5-7--------|
D|-----------------------------------------|
A|-----------------------------------------|
E|-----------------------------------------|

(Fill Four)
e|---------------------------|
B|-8-------------8-----------|
G|---8\7-------7---7\5--5----|
D|---------------------------|
A|---------------------------|
E|---------------------------|

(Fill Five)
e|-------------------------------------|
B|----8--9-8-------------8-------------|
G|--8--------8---------7--------7\5-5--|
D|-------------------------------------|
A|-------------------------------------|
E|-------------------------------------|

(Fill Six)
e|-11-8--------------------------3------|
B|------8h9-8\6--4-----3-------3---3p1--|
G|--------------------------------------|
D|--------------------------------------|
A|--------------------------------------|
E|--------------------------------------|

(Fill Seven)
e|----------------------------------------------|
B|--8--9-8------------8-----8-----8-----8-8-9-8-|
G|8--------8------8-7-----5---5-7---7-8---------|
D|----------------------------------------------|
A|----------------------------------------------|
E|----------------------------------------------|
[ Tab from: http://www.guitartabs.cc/tabs/m/modest_mouse/good_news_for_people_who_love_bad_news_tab_ver_2.html ]
(Fill Eight)
e|-----------------------------------|
B|------8-9-8------------------------|
G|-8-10---------8------7--------5----|
D|-----------------------------------|
A|-----------------------------------|
E|-----------------------------------|

(Fill Nine)
e|-8\-------------------------------|
B|----8----9-8-9-8-9-8-9-8-9-8------|
G|-----------------------------8-7--|
D|----------------------------------|
A|----------------------------------|
E|----------------------------------|


Eric Judy:

(Acoustic Guitar Chords)
e|--9---6---4--|
B|--9---6---4--|
G|--9---7---5--|
D|-11---8---6--|
A|-11---8---6--|
E|--9---6---4--|
   Cmin Bb  Ab

-----------------------------The View---------------------------------------

Tuning: Standard

Isaac Brock:

(Intro)
e|------------------------------------------------|
B|------------------------------------------------|
G|------5-5---------5-5--5\3---3\2-2-2---2--2-----|
D|------5-5---------5-5--5\3---3\2-2-2---2--2-----|
A|--1/3--------1/3--------------------------------|
E|------------------------------------------------|

(Verse Variation One) 
e|------------------------------------------|
B|------------------------------------------|
G|-2--5--x-x-4-4-x-7-x-x-2-2-2-2-2-0-0-0-0--|
D|-2--5--x-x-5-5-x-7-x-x-3-3-3-3-3-0-0-0-0--|
A|------------------------------------------|
E|------------------------------------------|

(Verse Variation Two)
e|--------------------------------------------------|
B|--------------------------------------------------|
G|-2--5--x-x-4-4-x-7-x-x-2-------------------2-2-2--|
D|-2--5--x-x-5-5-x-7-x-x-3-------------------3-3-3--|
A|--------------------------------------------------|
E|--------------------------------------------------|

(Verse Variation Three)
e|-----------------------------------------|
B|-----------------------------------------|
G|-2--5--x-x-4-4-x-7-x-x-2---2b---2b---2b--|
D|-2--5--x-x-5-5-x-7-x-x-3---3b---3b---3b--|
A|-----------------------------------------|
E|-----------------------------------------|

(Verse Variation Four)
e|---------------------------------------------|
B|---------------------------------------------|
G|-2--5--x-x-4-4-x-7-x-x-2-2-2-2-2-2-2-2-2-----|
D|-2--5--x-x-5-5-x-7-x-x-3-3-3-3-3-3-3-3-3-----|
A|---------------------------------------------|
E|---------------------------------------------|

(Chorus)
e|----------------------------------|
B|----------------------------------|
G|-5---------7--------9--------10---|
D|-5---------7--------9--------10---|
A|-3---------5--------7---------8---|
E|----------------------------------|
   C5        D5       E5        F5

(Interlude)
e|-------------------------------------------------------------------------|
B|-12+b-----------------------12+------------------------------------------|
G|-------12+b---------------------12+--------------------------------------|
D|-----------------3------------------------------3------------------------|
A|-----------5\3-3----7\5-------------7+------3-------------------7-7-7-7-7|
E|-------------------------------------------------------------------------|

e|-------------------------------------------------------------------------|
B|------------------------------------------------12+b---------------------|
G|-----------------------------------------------------------12+b----------|
D|-5-------------3-----------------5---------------------------------------|
A|---5--3-3----3---------7-7-7-7-7---5-3-3-3----------------------------5\3|
E|-------------------------------------------------------------------------|

e|-------------------------------------------------------------------------|
B|------------------------12+----------------------------------------------|
G|----------------------------12+------------------------------------------|
D|---3----------------------------------------------3------------------5---|
A|-3-----------7--------------------7+------------3--------7-7-7-7-7-7---5-|
E|-------------------------------------------------------------------------|

e|-------------------------------|
B|-------------------------------|
G|-------------------------------|
D|----------3--------------5-----|
A|-3-3----3------7-7-7-7-7---5---|
E|-------------------------------|

(Bridge)
e|-------------x---------------------------------1--------------|
B|-1-----------1--------------5-------------3----1--------------|
G|-0-----------2--------------4------------------2--------------|
D|-2-----------2--------------2------------------3--------------|
A|-3-----------0------------------------------------------------|
E|--------------------------------------------------------------|
   C           Am             E5                 F


Dann Gallucci:

(Keyboard part)
e|---5-----5-3-1-3-1-0----5-0------------|
B|-5-------------------3-----------------|
G|----------------------------5----------|
D|---------------------------------------|
A|---------------------------------------|
E|---------------------------------------|

(Chorus)
e|-------15------------------12-----------------13----|
B|----13------------------12-----------------13-------|
G|-12------------------12-----------------12----------|
D|----------------------------------------------------|
A|----------------------------------------------------|
E|----------------------------------------------------|

(Solo)
e|-13-12-13-10-12-10-8\7-7-8-7-8-7-8-10-------13-12-13-10-8-8-8\7-7-8-7-8-7|
B|--------------------------------------8----------------------------------|
G|-------------------------------------------------------------------------|
D|-------------------------------------------------------------------------|
A|-------------------------------------------------------------------------|
E|-------------------------------------------------------------------------|

e|-8-10--10-10----------|
B|----------------------|
G|----------------------|
D|----------------------|
A|----------------------|
E|----------------------|

----------------------------Satin in a Coffin-------------------------------

Tuning: Standard

Dann Gallucci:

(Chorus)
e|-----|
B|-----|
G|--7--|
D|--5--|
A|-----|
E|-----|

(Outro)
e|-------------------|
B|-------------------|
G|-------------------|
D|-5---3---1---0-----|
A|-------------------|
E|-------------------|

-------------------------Blame it on the Tetons-----------------------------

Tuning: Standard

Isaac Brock:

(Main Part)
e|-------------------------------------------------------------------------|
B|-0--0--0--0--0--0--------------------------------------------------------|
G|-4--4--4--4--5--7----0--0--0--0--0--0----0--0--0--0--0--0--0--0---0--0--0|
D|-5--5--5--5--5--5----4--4--4--4--5--7----2--2--2--2--2--0--0--2---2--2--2|
A|---------------------5--5--5--5--5--5----3--3--3--3--3--3--3--3---3--3--3|
E|-------------------------------------------------------------------------|

e|--------------|
B|--------------|
G|-0--0--0--0---|
D|-5--5--2--0---|
A|-3--3--3--3---|
E|--------------|

(Outro)
e|---------------------------------------------------------------|
B|--0---0--0--0--0-----------------------------------------------|
G|--4---4--4--5--4----0--0--0-0-0-0--0--0--0-0-------------------|
D|--5---5--5--5--5----2--2--2-2-2-2--2--2--2-2----7--7--7-7-7-5--|
A|--------------------3--3--3-3-3-3--3--3--3-3----7--7--7-7-7-7--|
E|------------------------------------------------5--5--5-5-5-5--|

e|--------------------------|
B|--------------------------|
G|--0--0--0-0-0-0--0--0-0-0-|
D|--0--0--0-0-0-0--0--0-0-0-|
A|--2--2--2-2-2-2--2--2-2-2-|
E|--3--3--3-3-3-3--3--3-3-3-|

----------------------------Black Cadillacs---------------------------------

Isaac Brock:

(Harmonics One) 
e|---------------------------|
B|------------------12+------|
G|-7+-12+--------------------|
D|---------7+----------------|
A|------------7+-------------|
E|---------------------------|

(Harmonics Two)
e|------------------------------------|
B|-7+---12+---------------------------|
G|----------7+---12+------------------|
D|--------------------3+---------5+---|
A|------------------------------------|
E|------------------------------------|

(Chorus)
e|------------------------------------------------------|
B|------------------------------------------------------|
G|-2--2--2-2-2---------------5--5--5-5-5----------------|
D|-2--2--2-2-2--3--3--3-3-3--5--5--5-5-5--5--5--5-5-5---|
A|-0--0--0-0-0--3--3--3-3-3--3--3--3-3-3--5--5--5-5-5---|
E|--------------1--1--1-1-1---------------3--3--3-3-3---|
   A5             F5            C5          G5

(Solo over Bridge)
e|------------------------------------------------------------------------|
B|----------------------------------------------------1--3-----1--3-------|
G|-3p2p0---------------------------------------------------2-2------2-2---|
D|-------3-3---3p2p0---------2-3-5-3--3-5-2-------------------------------|
A|-------------------3-3---3----------------3-----------------------------|
E|------------------------------------------------------------------------|

e|----------------------------|
B|1--3------------------------|
G|-----2-2-----0-0---2-2------|
D|----------------------------|
A|----------------------------|
E|----------------------------|


Dann Gallucci:

(Chorus)
e|-0--0--0-0-0--1--1--1-1-1---------------3--3--3-3-3-------|
B|-1--1--1-1-1--1--1--1-1-1--5--5--5-5-5--3--3--3-3-3-------|
G|-2--2--2-2-2--2--2--2-2-2--5--5--5-5-5--4--4--4-4-4-------|
D|-2--2--2-2-2--3--3--3-3-3--5--5--5-5-5--5--5--5-5-5-------|
A|-0--0--0-0-0--3--3--3-3-3--3--3--3-3-3--5--5--5-5-5-------|
E|--------------1--1--1-1-1---------------3--3--3-3-3-------|
   Am           F            C            G

(Bridge)
e|------------------1--1-------------3--3--------|
B|-3--3----3--3-----1--1-------5--5--3--3--------|
G|-3--3----3--3-----2--2-------5--5--4--4--------|                         
D|-3--3----3--3-----3--3-------5--5--5--5--------|
A|-1--1----1--1-----3--3-------3--3--5--5--------|
E|------------------1--1-------------3--3--------|
   Bb               F           C    G


-------------------------------One Chance-----------------------------------

Isaac Brock:

(Intro/Chorus)
e|------------------------------------------------------------------------|
B|------------------------------------------------------------------------|
G|-4/5p0--0--0-0-0-0------------------------------------------------------|
D|-4/5p0--0--0-0-0-0--4-4-4\2--2-2-2-2-2h4-4-4p2--------------------------|
A|--------------------5-5-5\3--3-3-3-3-3---3-3---2--2-2-2--2-2-2--2-2-2---|
E|-----------------------------------------------3--3-3-3--3-3-3--3-3-3---|

(Fill One)
e|--------------------|
B|--------------------|
G|-7--8-9----9-8-7----|
D|--------9-----------|
A|--------------------|
E|--------------------|

(Fill Two)
e|-----------------|
B|-------8---------|
G|-7-8-9---9-8-7---|
D|-----------------|
A|-----------------|
E|-----------------|

(Bridge Chords)
e|----------------|
B|----------------|
G|-4---4/5--------|
D|-4---4/5---5----|
A|-2---2/3---5----|
E|-----------3----|
   B5    C5  G5


Dann Gallucci:

(Intro/Chorus)
e|------------------------------------------------------------------|
B|-12-10----------10------12-10----10---12-10-------------10--------|
G|-------12----12----12---------12------------12-------12----12-12--|
D|------------------------------------------------------------------|
A|------------------------------------------------------------------|
E|------------------------------------------------------------------|


---------------------The Good Times are Killing me--------------------------

Tuning:Standard 

Eric Judy: 

(Acoustic Guitar Chords) (Capo on 5th) 
e|-x----x---| 
B|-x----1---| 
G|-2----0---| 
D|-3----2---| 
A|-3----3---| 
E|-1----x---| 
   Bb   F 

(Interlude) (Capo on 5th) 
e|---------------------------0------| 
B|-------1--------------1--1---1----| 
G|-----0--------------0-------------| 
D|---2--------------2---------------| 
A|-3--------------3-----------------| 
E|----------------------------------| 


Isaac Brock: 

(Baritone Guitar) 
e|------------------------------------------------------------------------| 
B|------------------------------------------------------------------------| 
G|------------------------------------------------------------------------| 
D|------------------------------------------------------------------------| 
A|--------------------------------------1--3----3--1--0---1--3----3--1--0-| 
E|-1--3----3--1--0---1--3----3--1--0--------------------------------------| 

(Varitation) 
e|---------------------------| 
B|---------------------------| 
G|---------------------------| 
D|----------------3----------| 
A|-1--3----3--\5-----5p3--1--| 
E|---------------------------| 

Note: I know a Baritone guitar is tuned to C; however, this is how I saw it played
live, and also I doubt half the people reading this own a baritone guitar anyways.
Don't tell me that its a bass part, because for one, no bass is credited in the
actual recording on Good News, for two, again, I saw it this way live, and finally
I simply don't care whether it is or not. 

-------------------------I've Got it All(Most)------------------------------

Tuning: Standard

Isaac Brock:

(Verse Chords)
e|----------------|
B|----------------|
G|-8---------6----|
D|-8---------6----|
A|-6---------4----|
E|----------------|
  D#5        C#5 

(Chorus)
e|--------------------------------|
B|--------9-----------------------|
G|--8--8--8--9---------11--8------|
D|--8--8--6--9---------11--8--9---|
A|--6--6-----7----------9--6--9---|
E|----------------------------7---|
    D#5  G#5 E5       F#5 D#5 B5

(Fill)
e|-----------|
B|--12----12-|
G|-----------|
D|-----------|
A|-----------|
E|-----------|


Dann Gallucci:

(Fill)
e|-------------------------------|
B|-12-----------------12p11h12---|
G|-------------------------------|
D|-------------------------------|
A|-------------------------------|
E|-------------------------------|

(PreChorus)
e|-------------|
B|-7~---4~-----|
G|---------4~--|
D|-------------|
A|-------------|
E|-------------|

(2nd Chorus)
e|-----------------------------------------------|
B|-----------------------------------------------|
G|---------8---------------8---------------------|
D|-8-9-8-9---9-----8-9-8-9---9---8-9-8-----------|
A|--------------------------------------11-11-9--|
E|-----------------------------------------------|

(Outro)
e|----------------------------------------------------|
B|----------------------------------------------------|
G|---------11---8-----------11---8--------------------|
D|-8-9-8-9----9-----8-9-8-9----9---9---8-9-8----------|
A|-------------------------------------------11-11-9--|
E|----------------------------------------------------|



Send comments, corrections or complaints to: 

colin_michael_muppet@hotmail.com

All appreciated. Merry Xmas 2004.
Comments