Modest Mouse - Four Leafed Clover Chords & Tabs

 

Four Leafed Clover Chords & Tabs

Modest Mouse Chords & Tabs

Version: 1 Type: Tab 0 ratings
1 star 2 stars 3 stars 4 stars 5 stars
comments

Four Leafed Clover Tab

   
Modest Mouse
Four Leafed Clover
off the album Sad Sappy Sucker. 

tabbed by: esco

im not sure if everyone has heard this song, but it's a damn good one. i had to tab it.
it's pretty fun to play too. it was kinda hard to figure out what was being played from
the poor quality of the song, well at least from my version of the song. just follow the
tab and listen to the song and you'll get it. not a hard one to play at all. i couldn't
tell whether one part was played with power chords or octaves. knowing modest mouse
songs, there's a chance it might be octaves. just a side note. 

i know there's another small guitar part in the chorus that i didn't tab out. to be
honest, i couldn't really hear it well to tab it as accurately as i could. but just
improvise and play what you hear. 
enjoy it like apple pie. 

questions/corrections: sleepyfishstick@hotmail.com

Tuning: Standard

Intro (0:00)  play these parts whenever you hear them.  
e|-----------------------------------------|
B|---4~~---------------4~~-----------------|
G|-----------------------------------------|
D|-----------------------------------------|
A|-----------------------------------------|
E|-------1/4~-4-4-4-0------4/1~-1-1-1-0----|

e|--------------------------|
B|---4~~-------4~~----------|
G|--------------------------|
D|--------------------------|
A|--------------------------|
E|-------1/4~------4/1~-----|
        
(0:42)  suddenly you hear this layering the intro. keep repeating 
e|------------------------------------|
B|------------------------------------|
G|---6-------6-------6-------6--------|
D|-6---6---6---6---6---6---6---6------|
A|-------6-------6-------6-------6----|
E|------------------------------------|

[ Tab from: http://www.guitartabs.cc/tabs/m/modest_mouse/four_leafed_clover_tab.html ]
Part 2 (1:43) the guitar sounds are distorted and bendy-like
e|-------------------------------------------------------------------------|
B|-------------------------------------------------------------------------|
G|-------------------------------------------------------------------------|
D|--10-10-10-10-10-/13/-10--8--6-6-6-6-6-/-8-/-6-(0)---------6-6-6---------|
A|---8--8--8--8--8-/11/--8--6--4-4-4-4-4-/-6-/-4-(0)--6-6-6--4-4-4--6-6-6--|
E|----------------------------------------------------4-4-4---------4-4-4--|

Chorus Part (2:17) "this isn't over, i got a four leafed clover" part.  
e|---------------------------------------------------|
B|---------------------------------------------------|
G|---------------------------------------------------|
D|--4-4-4-4-4-4-4-4-4-4-4----------------------------|
A|--2-2-2-2-2-2-2-2-2-2-2-4-4-4-x4-4-4-x4-4-4-x4-4---|
E|------------------------2-2-2-x2-2-2x-2-2-2-x2-2---|

e|------------------------|
B|--12...-----------------|
G|----------12...---------|
D|------------------------|
A|------------------------|
E|------------------------|
     ^^^^^^^^^^^^^^^
    strum these notes a number of times

(2:57) play Part 2 again. this time, you can hear this layering it-
e|----------------------------------------------------------|
B|----------------------------------------------------------|
G|----------------------------------------------------------|
D|---------------6------------------------------------------|
A|---8-8-8-8-8-8---8-6-4-4-4-4-4-4-6-4---------4-4-4--------|
E|-------------------------------------4-4-4-4-------4-4-4--|
    just thought i'd tab this part. 

play Chorus Part again 
and end the song with Part 2. 


i hope that wasnt confusing at all. 


| /  slide up
| \  slide down
| h  hammer-on
| p  pull-off
| ~  vibrato
| +  harmonic
| x  Mute note
===============================================================================
Comments