Modest Mouse - Float On Chords & Tabs

 

Float On Chords & Tabs

Modest Mouse Chords & Tabs

Version: 10 Type: Tab 0 ratings
1 star 2 stars 3 stars 4 stars 5 stars
comments

Float On Tab

   
----------------------------------------------------------------------------
			     Float On - Modest Mouse
----------------------------------------------------------------------------Tabbed by: mikey B 
Email:royalsoknownasmikeythesmashmaster@hotmail.com

Tuning: Standard low to high-(E A D G B E)

 Guitar 1-Capo on 6th Fret- Or bar it, capo is much easier tho
  (if you dont have a capo, replace 0's with 6's, 1's with 7's and 2's with 8's Until
i get around to Writing it again.)

 Guitar 2-No Capo No need to bar

 (Riff 1)
 Guitar 1- Relative to bar or Capo
e|-0----0--000-0--0--0--0--000-0--0--00--0--000-0-00-0-0-0-00-00-0--0|
B|-0h1--1--111-1--1--0--0--000-0--0--00--0--000-0-00-0-0-0-00-00-0--0|
G|-0----0--000-0--0--0--0--000-0--0--00--0--000-0-00-0-0-0-00-00-0--0| X 2
D|------------------------------------2--2--222-2--------------------|
A|-------------------------------------------------------------------|
E|-------------------------------------------------------------------|

After [Guitar 1] Plays (Riff 1) 1 time, Guitar 2 comes in with 
(Riff 2)
Guitar 2-No capo or Bar
e|---------9--------------------------------------------------------|}
B|-----11----11--9--1111-111111-------------------------------------| } 
G|--10-------------^^^^^^^^-----------------------------------------| } X 3
D|---------------11's Not 1's---------------------------------------| }
A|------------------------------------------------------------------| }
E|------------------------------------------------------------------|}
                      slide  
e|------------------------------------------------------------------|
B|--11-11-11-11-11-11-9\\\7--7~~~~~---------------------------------|X 1
G|------------------------------------------------------------------|
D|------------------------------------------------------------------|
A|------------------------------------------------------------------|
E|------------------------------------------------------------------|

 (Riff 1)
 Guitar 1- Relative to bar or Capo
e|-0----0--000-0--0--0--0--000-0--0--00--0--000-0-00-0-0-0-00-00-0--0|
B|-0h1--1--111-1--1--0--0--000-0--0--00--0--000-0-00-0-0-0-00-00-0--0| X 3
G|-0----0--000-0--0--0--0--000-0--0--00--0--000-0-00-0-0-0-00-00-0--0|
D|------------------------------------2--2--222-2--------------------|
A|-------------------------------------------------------------------|
E|-------------------------------------------------------------------|

After [Guitar 1] plays (Riff 1), 2 times, [Guitar 2] Comes in with

(Riff 2)
Guitar 2-No capo or Bar
e|---------9--------------------------------------------------------|}
B|-----11----11--9--1111-111111-------------------------------------| } 
G|--10-------------^^^^^^^^-----------------------------------------| } X 3
D|---------------11's Not 1's---------------------------------------| }
A|------------------------------------------------------------------| }
E|------------------------------------------------------------------|}
                      slide  
e|------------------------------------------------------------------|
B|--11-11-11-11-11-11-9\\\7--7~~~~~---------------------------------|X 1
G|----^--^--^--^--^-------------------------------------------------|
D|---Tremolo or Pick------------------------------------------------|
A|------------------------------------------------------------------|
E|------------------------------------------------------------------|

(Riff 3) (during "And we'll all float on ok.")
Guitar 1- Relative to bar or Capo
e|-----0-------0-------0-------0-------0-------0-----------0---------|
B|---0---0---0---0---0---0---0---0---1---1---1---1-----0-----0---0---|
G|-1-------1-------0-------0-------2-------2---------0---0-----0-----| X2
D|-------------------------------------------------2-----------------|
A|-------------------------------------------------------------------|
E|-------------------------------------------------------------------|
[ Tab from: http://www.guitartabs.cc/tabs/m/modest_mouse/float_on_tab_ver_10.html ]
 (Riff 1)
 Guitar 1- Relative to bar or Capo
e|-0----0--000-0--0--0--0--000-0--0--00--0--000-0-00-0-0-0-00-00-0--0|
B|-0h1--1--111-1--1--0--0--000-0--0--00--0--000-0-00-0-0-0-00-00-0--0| X 3
G|-0----0--000-0--0--0--0--000-0--0--00--0--000-0-00-0-0-0-00-00-0--0|
D|------------------------------------2--2--222-2--------------------|
A|-------------------------------------------------------------------|
E|-------------------------------------------------------------------|

 After [Guitar 1] plays (Riff 1), 3 times [Guitar 2] Comes in with:
(Riff 2)
Guitar 2-No capo or Bar
e|---------9--------------------------------------------------------|}
B|-----11----11--9--1111-111111-------------------------------------| } 
G|--10-------------^^^^^^^^-----------------------------------------| } X 3
D|---------------11's Not 1's---------------------------------------| }
A|------------------------------------------------------------------| }
E|------------------------------------------------------------------|}
                      slide  
e|------------------------------------------------------------------|
B|--111111111111111111111111111-9\\\7--7~~~~~-----------------------|X 1
G|----^^^^^^^^^^^^^^^^^^^^^^^^^^------------------------------------|
D|---11's Not 1's---------------------------------------------------|
A|------------------------------------------------------------------|
E|------------------------------------------------------------------|

(Riff 3) (during "And we'll all float on ok.")
Guitar 1- Relative to bar or Capo
e|-----0-------0-------0-------0-------0-------0-----------0---------|
B|---0---0---0---0---0---0---0---0---1---1---1---1-----0-----0---0---|
G|-1-------1-------0-------0-------2-------2---------0---0-----0-----| X2
D|-------------------------------------------------2-----------------|
A|-------------------------------------------------------------------|
E|-------------------------------------------------------------------|

(Riff 2) 
Guitar 2-No capo or Bar
e|---------9--------------------------------------------------------|}
B|-----11----11--9--1111-111111-------------------------------------| } 
G|--10-------------^^^^^^^^-----------------------------------------| } X 3
D|---------------11's Not 1's---------------------------------------| }
A|------------------------------------------------------------------| }
E|------------------------------------------------------------------|}
                      slide  
e|------------------------------------------------------------------|
B|--111111111111111111111111111-9\\\7--7~~~~~-----------------------|X 1
G|----^^^^^^^^^^^^^^^^^^^^^^^^^^------------------------------------|
D|---11's Not 1's---------------------------------------------------|
A|------------------------------------------------------------------|
E|------------------------------------------------------------------|

PLAY ENTIRE (Riff 2), 3 TIMES !

Then some Singing, and Bass playing.

Solo
Guitar 2-No capo or Bar
e|------------------------------------------------------------------|
B|-------3--1-----1--3--1-----1--3--1-----1-3--3-1-----1--3--1------| X 1
G|-1--4------4-------------4-----------4------------4----------4----|
D|------------------------------------------------------------------|
A|------------------------------------------------------------------|
E|------------------------------------------------------------------|

(Riff 2) 
Guitar 2-No capo or Bar
e|---------9--------------------------------------------------------|}
B|-----11----11--9--1111-111111-------------------------------------| } 
G|--10-------------^^^^^^^^-----------------------------------------| } X 3
D|---------------11's Not 1's---------------------------------------| }
A|------------------------------------------------------------------| }
E|------------------------------------------------------------------|}
                      slide  
e|------------------------------------------------------------------|
B|--111111111111111111111111111-9\\\7--7~~~~~-----------------------|X 1
G|----^^^^^^^^^^^^^^^^^^^^^^^^^^------------------------------------|
D|---11's Not 1's---------------------------------------------------|
A|------------------------------------------------------------------|
E|------------------------------------------------------------------|

PLAY ENTIRE (Riff 2), 2 Times, (second time replace 
111111111111111111111111111 with 11-11-11-11-11-11)



The End I hope you enjoy, thanks for reading.
Comments