Modest Mouse - Dramamine Chords & Tabs

 

Dramamine Chords & Tabs

Modest Mouse Chords & Tabs

Version: 5 Type: Tab 0 ratings
1 star 2 stars 3 stars 4 stars 5 stars
comments

Dramamine Tab

Dramamine
E-mail: hah2488@yahoo.com


Layer 1 (plays throughout song)
e|-------------------------|
B|-------------------------|
G|---0---------------------|
D|-2---2---4-----2-----4---|
A|-------5---5-3---3-----5-|
E|-------------------3-----|

Layer 2 (2 quick bends for each note)
e|-19---------12---12--|
B|-------12------------|
G|---------------------|
D|---------------------|
A|---------------------|
E|---------------------|

Layer 3
e|--------------------------|--------------------------|
B|-------8------------------|-------8------------------|
G|-9-7-9---9-7--------------|-9-7-9---9-7-9-7-0--7-5-0-|
D|-------------9-7---7-9----|--------------------------|
A|-----------------10----10-|--------------------------|
E|--------------------------|--------------------------|

Layer 4
e|-------------------------|
B|-------------------------|
G|-------------------------|
D|-9-7----7-5-9/5----------|
A|-----10------------------|
E|-------------------------|

Verse
e|--0--0--0-----------------|
B|--0--0--0-----------------|
G|--0--0--0-----------------|
D|--2--5--3-----------------|
A|-----4--2-----------------|
E|--------------------------|
[ Tab from: http://www.guitartabs.cc/tabs/m/modest_mouse/dramamine_tab_ver_5.html ]
Sub-part of verse
e|-0-00000-00000-00000-0000--------|
B|-0-00000-00000-00000-0000--------|
G|-0-00000-00000-00000-0000--------|
D|-2-22224-44442-22222-2222--------|
A|-------5-55553-33333-3333--------|
E|---------------------------------|

Layer 5
e|------------------------------------------------------|
B|------------------------------------------------------|
G|-16-14--12-11--12--11---------------------------------|
D|----------------------12--12-10-9-10--9-10-12--10-----|
A|--------------------------------------------------10--|
E|------------------------------------------------------|

Layer 6
e|----------------------------|
B|----------------------------|
G|-16-14----16-14----12----12-|
D|-------14-------14----14----|
A|----------------------------|
E|----------------------------|

e|--------------------------|--------------------------|
B|-------8------------------|-------8------------------|
G|-9-7-9---9-7--------------|-9-7-9---9-7-9-7-0--7-5-0-|
D|-------------9-7---7-9----|--------------------------|
A|-----------------10----10-|--------------------------|
E|--------------------------|--------------------------|

e|---------------------------|
B|---------------------------|
G|-9-7-0-7-5-0---------0-----|
D|-------------9-7---7-------|
A|-----------------7-----7---|
E|---------------------------|


Enjoy!

Thanks to Mike for the idea
Comments