Modest Mouse - Dramamine Chords & Tabs

 

Dramamine Chords & Tabs

Modest Mouse Chords & Tabs

Version: 2 Type: Tab 0 ratings
1 star 2 stars 3 stars 4 stars 5 stars
comments

Dramamine Tab

   
Modest Mouse-Dramamine
This Is A Long Drive For Someone With Nothing To Think About
Tabbed By Mike Rall(Em0-Guitarist)
Tuning-E-A-D-G-B-E
Email-Afr0EmoMike@yahoo.com 

B=Bend
h=Hammer On
p=Pull Off
/ \=Slide Up/Slide Down
~=Let Ring

e|---------------------|
B|-12b-----------------|
G|----------12b-12b----|
D|-----12b-------------|X7
A|---------------------|
E|---------------------|

e|----------------------------------------------------------------------------|
B|----------------------------------------------------------------------------|
G|-9-7-9/12-9-7-------------9-7-9/12-9-7-9-7-0-7-5-0--9-7-9/12-9-7------------|
D|-------------9-7-5-7-9-5----------------------------------------9-7-5-7-9-5-|
A|----------------------------------------------------------------------------|
E|----------------------------------------------------------------------------|

e|----------------------------------------------------------------------------|
B|----------------------------------------------------------------------------|
G|-9-7-9/12-9-7-9-7-0-7-5-9---------------------9-7-9/12-9-7------------------|
D|---------------------------9-7-0-7-5-5/7-7\5---------------9-7-5-7-9-5------|
A|----------------------------------------------------------------------------|
E|----------------------------------------------------------------------------|

e|----------------------------------------------------------------------------|
B|----------------------------------------------------------------------------|
G|-9-7-9/12-9-7-9-7-0-7-5-0--9-7-9/12-9-7--------------9-7-9/12-9-7/12~-------|
D|----------------------------------------9-7-5-7-9-5-------------------------|
A|----------------------------------------------------------------------------|
E|----------------------------------------------------------------------------|

e|-----------|
B|-----------|
G|--9-7-9----|
D|--9-7-9----|X8
A|--7-5-7----|
E|-----------|

e|----------------------------------------------------------------------------|
B|----------------------------------------------------------------------------|
G|-9-7-9/12-9-7-------------9-7-9/12-9-7-9-7-0-7-5-0--9-7-9/12-9-7------------|
D|-------------9-7-5-7-9-5----------------------------------------9-7-5-7-9-5-|
A|----------------------------------------------------------------------------|
E|----------------------------------------------------------------------------|

e|----------------------------------------------------------------------------|
B|----------------------------------------------------------------------------|
G|-9-7-9/12-9-7-9-7-0-7-5-9---------------------9-7-9/12-9-7------------------|
D|---------------------------9-7-0-7-5-5/7-7\5---------------9-7-5-7-9-5------|
A|----------------------------------------------------------------------------|
E|----------------------------------------------------------------------------|
[ Tab from: http://www.guitartabs.cc/tabs/m/modest_mouse/dramamine_tab_ver_2.html ]
e|----------------------------------------------------------------------------|
B|----------------------------------------------------------------------------|
G|-9-7-9/12-9-7/12~-----------------------------------------------------------|
D|----------------------------------------------------------------------------|
A|----------------------------------------------------------------------------|
E|----------------------------------------------------------------------------|

e|------------|
B|------------|
G|--9-7-9-----|
D|--9-7-9-----|X7
A|--7-5-7-----|
E|------------|

e|---------------------------------------|
B|---------------------------------------|
G|--9--9-9-7--7-7-12--12-12-12--12-12----|
D|--9--9-9-7--7-7-12--12-12-12--12-12----|X7
A|--7--7-7-5--5-5-10--10-10-10--10-10----|
E|---------------------------------------|

e|------------------|
B|------------------|
G|--9b--7b--12b-----|
D|--9b--7b--12b-----|X2
A|--7b--5b--10b-----|
E|------------------|


e|-------------------------------------------|
B|-12-10-------------------------------------|
G|-------12-11-12-12/7-7-5-4h5/7-5-4h5p4-0---|
D|-------------------------------------------|X2
A|-------------------------------------------|
E|-------------------------------------------|

e|---7------7--------------------------|
B|-----10-----10-----------------------|
G|--------9------9-9h12-9-9-9h12-9-9---|
D|-------------------------------------|X5
A|-------------------------------------|
E|-------------------------------------|

e|---------------------|
B|-12b-----------------|
G|----------12b-12b----|
D|-----12b-------------|X3
A|---------------------|
E|---------------------|

e|----------------------------------------------------------------------------|
B|----------------------------------------------------------------------------|
G|-9-7-9/12-9-7-------------9-7-9/12-9-7-9-7-0-7-5-0--9-7-9/12-9-7------------|
D|-------------9-7-5-7-9-5----------------------------------------9-7-5-7-9-5-|
A|----------------------------------------------------------------------------|
E|----------------------------------------------------------------------------|

e|----------------------------------------------------------------------------|
B|----------------------------------------------------------------------------|
G|-9-7-9/12-9-7-9-7-0-7-5-9---------------------9-7-0-7-5-0-------------------|
D|---------------------------9-7-0-7-5-5/7-7\5---------------9-7-0-7-5-0------|
A|----------------------------------------------------------------------------|
E|----------------------------------------------------------------------------|


e|---------------------------------------------------------------------------|
B|---------------------------------------------------------------------------|
G|-9-7-0-7-5-0---------------9-7-0-7-5-0-------------------------------------|
D|--------------9-7-0-7-5-0---------------9-7-0-7-5--5/9\5--5/9\5--5/9\5-----|
A|---------------------------------------------------------------------------|
E|---------------------------------------------------------------------------|
Comments