Modest Mouse - Doing The Cockroach Chords & Tabs

 

Doing The Cockroach Chords & Tabs

Modest Mouse Chords & Tabs

Version: 3 Type: Tab 0 ratings
1 star 2 stars 3 stars 4 stars 5 stars
comments

Doing The Cockroach Tab

Modest Mouse - Doin' The Cockroach

Tabbed by: Truly Ninja
Email: trulyninja@hotmail.com

Tuning:EADGBe

"*" means harmonic.

Riff 1
e|---------------------------------------------------------------------------|
B|-----3---3-----------------------------------------------------------------|
G|---4---4---4-2---2---2-------------------4-4-4-4---------------------------|
D|---------------4---4---4-2---2---2-------4-4-4-4---------------------------|
A|---------------------------4---4---4-2---2-2-2-2---------------------------|
E|---------------------------------------------------------------------------|

Riff 2
e|---------------------------------------------------------------------------|
B|---------------------------------------------------------------------------|
G|-------7------7-----7-----7------------------------------------------------|
D|-----------------------------7-7-7-7-7-7-7-7--5-5-5-5-5-5-5-5--------------|
A|-----------------------------7-7-7-7-7-7-7-7--5-5-5-5-5-5-5-5--------------|
E|---7-7----7-7---7-7---7-7----5-5-5-5-5-5-5-5--3-3-3-3-3-3-3-3--------------|
[ Tab from: http://www.guitartabs.cc/tabs/m/modest_mouse/doing_the_cockroach_tab_ver_3.html ]
Riff 3
e|---------------------------------------------------------------------------|
B|---------------------------------------------------------------------------|
G|--------7*-9*-----7*-9*-----7*-9*-----7*-9*--------------------------------|
D|---------------------------------------------------------------------------|
A|---------------------------------------------------------------------------|
E|----7-7-------7-7-------7-7-------7-7--------------------------------------|

Riff 3 continued
e|---------------------------------------------------------------------------|
B|---------------------------------------------------------------------------|
G|---------------------------------------------------------------------------|
D|-----------4-------4-------------------------------------------------------|
A|-------4-----5-4-----5-4-------4-------------------------------------------|
E|---5-5---5-------5-------5-3-3---5-----------------------------------------|

Riff 4
e|---------------------------------------------------------------------------|
B|---------------------------------------------------------------------------|
G|---x-x-11-7-9-7-7-------9-------7------------------------------------------|
D|---x-x------------(x3)----(x3)----(x5)-------------------------------------|
A|---x-x-9--5-7-5-5-------7-------5------------------------------------------|
E|---------------------------------------------------------------------------|
Comments