Modest Mouse - Dark Center Of The Universe Chords & Tabs

 

Dark Center Of The Universe Chords & Tabs

Modest Mouse Chords & Tabs

Version: 1 Type: Tab 0 ratings
1 star 2 stars 3 stars 4 stars 5 stars
comments

Dark Center Of The Universe Tab

   
Dark Centre of the Universe - Modest Mouse

Tabbed by: Truly Ninja
Email: trulyninja@hotmail.com

Tuning:EADGBe

	Riff One:
e|--0-0-0-0-0-0-0-0--0-0-0-0-0-0-0-0--0-0-0-0-0-0-0-0--0-0-0h2-0h2-0h2-0h2---|
B|--5-5-5-5-5-5-5-5--3-3-3-3-3-3-3-3--2-2-2-2-2-2-2-2--0-0-0---0---0---0-----|
G|---------------------------------------------------------------------------|
D|---------------------------------------------------------------------------|
A|---------------------------------------------------------------------------|
E|---------------------------------------------------------------------------|

	Riff Deux:
e|--0-0-7-7-0-0-7-7--0-0-5-5-0-0-5-5--0-0-4-4-0-0-4-4--0-0-0h2-0h2-0h2-0h2---|
B|--5-5-5-5-5-5-5-5--3-3-3-3-3-3-3-3--2-2-2-2-2-2-2-2--0-0-0---0---0---0-----|
G|---------------------------------------------------------------------------|
D|---------------------------------------------------------------------------|
A|---------------------------------------------------------------------------|
E|---------------------------------------------------------------------------|
[ Tab from: http://www.guitartabs.cc/tabs/m/modest_mouse/dark_center_of_the_universe_tab.html ]
	Riff Three:
e|-0-0-5h7p5-0-0-0-5h7p5-0--0-0-4h5p4-0--0-0-4h5p4-0-------------------------|
B|-5-5-------5-5-5-------5--3-3-------3--3-3-------3-------------------------|
G|---------------------------------------------------------------------------|
D|---------------------------------------------------------------------------|
A|---------------------------------------------------------------------------|
E|---------------------------------------------------------------------------|

	Riff Three Continued:
e|-0-0-2h4p2-0--0-0-2h4p2-0---0-0-0h2-0h2-0h2-0h2-0h2-0h2--------------------|
B|-2-2-------2--2-2-------2---0-0-0---0---0---0---0---0----------------------|
G|---------------------------------------------------------------------------|
D|---------------------------------------------------------------------------|
A|---------------------------------------------------------------------------|
E|---------------------------------------------------------------------------|

For the "crunchy" part play these chords with a palm mute or a regular
left-hand mute (or right hand if you are left handed):

E5/D5/C#5/B5

That's basically it! And, like I say with all the other mouse songs, PLAY IT LOOSE!
Comments