Modest Mouse - Dance Hall Chords & Tabs

 

Dance Hall Chords & Tabs

Modest Mouse Chords & Tabs

Version: 1 Type: Tab 0 ratings
1 star 2 stars 3 stars 4 stars 5 stars
comments

Dance Hall Tab

Modest Mouse-"Dance Hall" from the album:
" Good News For People Who Love Bad News "
solo by: bbkeen
  
e|--7-5--7-5-3---7-5--7-8-7-5-7--5--7-5-3-2---------
B|------------5----------------------------5--------
G|--------------------------------------------------
D|--------------------------------------------------
A|--------------------------------------------------
E|--------------------------------------------------
[ Tab from: http://www.guitartabs.cc/tabs/m/modest_mouse/dance_hall_tab.html ]
e|--7-5--7-5-3---7-5--7-8-7-5-7--5--7-5-3-2------------------
B|------------5----------------------------5--5-5-3-3-1-1-0--
G|-----------------------------------------------------------
D|-----------------------------------------------------------
A|-----------------------------------------------------------
E|-----------------------------------------------------------
    
I wanna dance hall, dance hall every day!
I wanna dance hall, dance hall every day!
I wanna dance hall, dance hall every daaaayyyyy!
Comments