Modest Mouse - Bukowski Chords & Tabs

 

Bukowski Chords & Tabs

Modest Mouse Chords & Tabs

Version: 1 Type: Tab 0 ratings
1 star 2 stars 3 stars 4 stars 5 stars
comments

Bukowski Tab

MODEST MOUSE
Good News For People Who Love Bad News
"Bukowski"
Tabbed By Garrett Gold (Yugugelizer)

Part 1
E |8----------------|
B |--8-8-9-8-9-8----|
G |--------------8-7|
D |-----------------|
A |-----------------|
E |-----------------|

Part 2
E |8----------|
B |--8-8h9p8--|
G |----------8|
D |-----------|
A |-----------|
E |-----------|

Part 3
E |8----------------------------------|
B |--8-8h9p8---8-----8-----8-----8-9-8|
G |----------8---8-7---7-5---5-7------|
D |-----------------------------------|
A |-----------------------------------|
E |-----------------------------------|

Part 4
E |----------------|
B |8-------8-------|
G |--8\7-7---7\5-5b|
D |----------------|
A |----------------|
E |----------------|
[ Tab from: http://www.guitartabs.cc/tabs/m/modest_mouse/bukowski_tab.html ]
Part 5
E |--------------------|
B |--8-9-8-----8-------|
G |8-------8-7---7\5-5b|
D |--------------------|
A |--------------------|
E |--------------------|

Part 6
E |11-8---------------|
B |-----8-9\8--------7|
G |-----------10-8-7--|
D |-------------------|
A |-------------------|
E |-------------------|

Part 7
E |---------------------------------------|
B |--8-9-8-----8---8-----8-----8-----8-9-8|
G |8-------8-7---5---5-7---7-8---8-7------|
D |---------------------------------------|
A |---------------------------------------|
E |---------------------------------------|

Part 8
E |----------|
B |-----8-9-8|
G |8-10------|
D |----------|
A |----------|
E |----------|

Part 9
E |8------------------------------|
B |--8---8-9-8-9-8-9-8-9-8-9-8----|
G |----------------------------8-7|
D |-------------------------------|
A |-------------------------------|
E |-------------------------------|

PART ORDER

1,2,3,4,1,2,5,6,7,2,8,2,9,2
Comments