Modest Mouse - Black Cadillacs Chords & Tabs

 

Black Cadillacs Chords & Tabs

Modest Mouse Chords & Tabs

Version: 2 Type: Tab 0 ratings
1 star 2 stars 3 stars 4 stars 5 stars
comments

Black Cadillacs Tab

---------------------------------------------
Black Cadillacs (intro)- Modest Mouse
---------------------------------------------
Tabbed By: Billy Anglin
Email: billyanglin@comcast.net

Tuning: Standard (EADGBe)
[ Tab from: http://www.guitartabs.cc/tabs/m/modest_mouse/black_cadillacs_tab_ver_2.html ]
e|----10-----------7---------------------------10----------7--|
B|-------8---10-----------18-----------19---------8--10-------|
G|--------------9-------------16--18--------------------9-----|
D|-----------------------------------17-----------------------|
A|------------------------------------------------------------|
E|------------------------------------------------------------|
Comments