Modest Mouse - Bankrupt On Selling Chords & Tabs

 

Bankrupt On Selling Chords & Tabs

Modest Mouse Chords & Tabs

Version: 3 Type: Tab 0 ratings
1 star 2 stars 3 stars 4 stars 5 stars
comments

Bankrupt On Selling Tab

   
-------------------------------------------------------------------------------
			     Bankrupt on Selling - Modest Mouse
-------------------------------------------------------------------------------
Tabbed by: Wangchowder86
Email:

Tuning: Standard

Guitar 1 Acoustic
e:--------------------------------------3-3-3----0-0--0-0-0--0---:
B:-1-1--3-1-0-----1-1---3-1-0-----0-0---3-3-3----1-1--1-1-1--1---:
G:-0-0--0-0-0-----2-2---2-2-2-----0-0---0-0-0----2-2--2-2-2--2---:
D:-2-2--2-2-2-----2-2---2-2-2-----2-2---2-2-2----3-3--3-3-3--3---:
A:-3-3--3-3-3-----0-0---0-0-0-----2-2---2-2-2--------------------:
E:---------------------------------------------------------------:

[ Tab from: http://www.guitartabs.cc/tabs/m/modest_mouse/bankrupt_on_selling_tab_ver_3.html ]
Guitar 2 Revereb
e:----------------------------------------3-1-0--------------0---:
B:-1-----3-1-0----1-----3-1-0-----0-----3-3-3----1-------1---1---:
G:-0-----0-0-0----2-----2-2-2-----0-----0-0-0----2----0h2--2-2---:
D:-2-----2-2-2----2-----2-2-2-----2-----2-2-2----3-----------3---:
A:-3-----3-3-3----0-----0-0-0-----2-----2-2-2--------------------:
E:--------------------------------0-----0-0-0--------------------:


The strumming pattern isn't here it's more just a general tab, but I thought I'd put the 
second guitar in there.


************************************

| /   slide up
| \   slide down
| h   hammer-on
| p   pull-off
| ~   vibrato
| +   harmonic
| x   Mute note
| b   Bend
| pb  Pre-bend
| br  Bend release
| pbr Pre-bend release
| brb Bend release bend

************************************
Comments